Song name
# A B C D E F G H I J K L M N O P Q R S T U V W X Y Z

Drake Bell - Makes Me Happy Acoustic tab

Hey everyone,
I took this from Drake's accoustic performance of Makes Me Happy on Live with Regis and Kelly.
So it's pretty much correct. Enjoy.

e|----0--0--0--0--0--0--0--0--0--0--0--0--0--0--0--0----|
B|----1--1--1--1--1--1--1--1--1--1--1--1--1--1--1--1----|
G|----0--0--0--0--0--0--0--0--0--0--0--0--0--0--0--0----| 
D|----2--2--0--0--2--2--0--0--2--2--0--0--2--2--0--0----|
A|----3--3--2--2--3--3--2--2--3--3--2--2--3--3--2--2----|
E|----X--X--3--3--X--X--3--3--X--X--3--3--X--X--3--3----|


e|----0--0--0--0--0--0--0--0----|
B|----1--1--1--1--1--1--1--1----|
G|----0--0--0--0--0--0--0--0----|
D|----2--2--0--0--2--2--0--0----|
A|----3--3--2--2--3--3--2--2----|
E|----x--x--3--3--x--x--3--3----|
Well hello lets go everybody must know

e|----0--0--0--0--0--0--0--0----|
B|----1--1--1--1--1--1--1--1----|
G|----0--0--0--0--0--0--0--0----|
D|----2--2--0--0--2--2--0--0----|
A|----3--3--2--2--3--3--2--2----|
E|----x--x--3--3--x--x--3--3----|
Love's in my heart like a bomb 
It's blowin' a 

e|----0----|
B|----1----|
G|----0----|
D|----2----| (strum)
A|----3----|
E|----X----|
song inside I'm singin'
Sunshine that you're bringin' now 
And it 

e|----0--0--0--0--0--0--0--0--0--0--0--0----|
B|----1--1--1--1--1--1--1--1--1--1--1--1----|
G|----0--0--0--0--0--0--0--0--0--0--0--0----|
D|----0--0--2--2--0--0--2--2--0--0--2--2----|
A|----2--2--3--3--2--2--3--3--2--2--3--3----|
E|----3--3--X--X--3--3--X--X--3--3--X--X----|
makes me happy

e|----0--0--0--0--0--0--0--0----|
B|----1--1--1--1--1--1--1--1----|
G|----0--0--0--0--0--0--0--0----|
D|----2--2--0--0--2--2--0--0----|
A|----3--3--2--2--3--3--2--2----|
E|----x--x--3--3--x--x--3--3----|
Listen to the radio playin' back in stereo

e|----0--0--0--0--0--0--0--0----|
B|----1--1--1--1--1--1--1--1----|
G|----0--0--0--0--0--0--0--0----|
D|----2--2--0--0--2--2--0--0----|
A|----3--3--2--2--3--3--2--2----|
E|----x--x--3--3--x--x--3--3----|
Sounds like my favorite song 
I'm hummin' a-

e|----0----|
B|----1----|
G|----0----|
D|----2----| (strum)
A|----3----|
E|----X----|
long my head is ringin'
And I just can't stop singin' now
'Cause it 

e|----0--0--0--0--0--0--0--0--0--0--0--0----|
B|----1--1--1--1--1--1--1--1--1--1--1--1----|
G|----0--0--0--0--0--0--0--0--0--0--0--0----|
D|----0--0--2--2--0--0--2--2--0--0--2--2----|
A|----2--2--3--3--2--2--3--3--2--2--3--3----|
E|----3--3--X--X--3--3--X--X--3--3--X--X----|
makes me happy
It makes me happy

e|----1--1--1--1--0--0--0--0----|
B|----3--3--3--3--1--1--1--1----|
G|----2--2--2--2--0--0--0--0----|
D|----0--0--0--0--2--2--2--2----|
A|----X--X--X--X--3--3--3--3----|
E|----X--X--X--X--X--X--X--X----|
You're everything I need handed from above

e|----1--1--1--1--0--0--0--0----|
B|----3--3--3--3--1--1--1--1----|
G|----2--2--2--2--0--0--0--0----|
D|----0--0--0--0--2--2--2--2----|
A|----X--X--X--X--3--3--3--3----|
E|----X--X--X--X--X--X--X--X----|
I can't get enough of your love
'Cause it 

e|----0--0--0--0--0--0--0--0--0--0--0--0----|
B|----1--1--1--1--1--1--1--1--1--1--1--1----|
G|----0--0--0--0--0--0--0--0--0--0--0--0----|
D|----0--0--2--2--0--0--2--2--0--0--2--2----|
A|----2--2--3--3--2--2--3--3--2--2--3--3----|
E|----3--3--X--X--3--3--X--X--3--3--X--X----|
makes me happy
It makes me happy

e|----0--0--0--0--0--0--0--0----|
B|----1--1--1--1--1--1--1--1----|
G|----0--0--0--0--0--0--0--0----|
D|----2--2--0--0--2--2--0--0----|
A|----3--3--2--2--3--3--2--2----|
E|----x--x--3--3--x--x--3--3----|
Livin' in a day dream I'll show you what it all means

e|----0--0--0--0--0--0--0--0----|
B|----1--1--1--1--1--1--1--1----|
G|----0--0--0--0--0--0--0--0----|
D|----2--2--0--0--2--2--0--0----|
A|----3--3--2--2--3--3--2--2----|
E|----x--x--3--3--x--x--3--3----|
Spendin' some time in the sun
Let's get up and 

e|----0----|
B|----1----|
G|----0----|
D|----2----| (strum)
A|----3----|
E|----X----|
run it's just beginnin'
I just can't stop singin' now
'Cause it 

e|----0--0--0--0--0--0--0--0--0--0--0--0----|
B|----1--1--1--1--1--1--1--1--1--1--1--1----|
G|----0--0--0--0--0--0--0--0--0--0--0--0----|
D|----0--0--2--2--0--0--2--2--0--0--2--2----|
A|----2--2--3--3--2--2--3--3--2--2--3--3----|
E|----3--3--X--X--3--3--X--X--3--3--X--X----|
makes me happy

e|----1--1--1--1--0--0--0--0----|
B|----3--3--3--3--1--1--1--1----|
G|----2--2--2--2--0--0--0--0----|
D|----0--0--0--0--2--2--2--2----|
A|----X--X--X--X--3--3--3--3----|
E|----X--X--X--X--X--X--X--X----|
Like a fantasy that you never find

e|----1--1--1--1--0--0--0--0----|
B|----3--3--3--3--1--1--1--1----|
G|----2--2--2--2--0--0--0--0----|
D|----0--0--0--0--2--2--2--2----|
A|----X--X--X--X--3--3--3--3----|
E|----X--X--X--X--X--X--X--X----|
Right in front of me all the time
But it 

e|----0--0--0--0--0--0--0--0--0--0--0--0----|
B|----1--1--1--1--1--1--1--1--1--1--1--1----|
G|----0--0--0--0--0--0--0--0--0--0--0--0----|
D|----0--0--2--2--0--0--2--2--0--0--2--2----|
A|----2--2--3--3--2--2--3--3--2--2--3--3----|
E|----3--3--X--X--3--3--X--X--3--3--X--X----|
makes me happy


e|----1----|
B|----3----|
G|----2----|
D|----0----| (strum)
A|----X----|
E|----X----|
I want it all but not too 

e|----0----|
B|----1----|
G|----0----|
D|----2----| (strum)
A|----3----|
E|----X----|
much
I want to feel the way you

e|----1----|
B|----3----|
G|----2----|
D|----0----| (strum)
A|----X----|
E|----X----|
touch me I'm the kinda guy who's

e|----0----|
B|----1----|
G|----0----|
D|----2----| (strum)
A|----3----|
E|----X----|
Always there to come and find you

e|----0--0--0--0--0--0--0--0--0--0--0--0----|
B|----1--1--1--1--1--1--1--1--1--1--1--1----|
G|----0--0--0--0--0--0--0--0--0--0--0--0----|
D|----0--0--2--2--0--0--2--2--0--0--2--2----|
A|----2--2--3--3--2--2--3--3--2--2--3--3----|
E|----3--3--X--X--3--3--X--X--3--3--X--X----|

e|----1--1--1--1--0--0--0--0----|
B|----3--3--3--3--1--1--1--1----|
G|----2--2--2--2--0--0--0--0----|
D|----0--0--0--0--2--2--2--2----|
A|----X--X--X--X--3--3--3--3----|
E|----X--X--X--X--X--X--X--X----|
Save the rainy days for another time

e|----1--1--1--1--0--0--0--0----|
B|----3--3--3--3--1--1--1--1----|
G|----2--2--2--2--0--0--0--0----|
D|----0--0--0--0--2--2--2--2----|
A|----X--X--X--X--3--3--3--3----|
E|----X--X--X--X--X--X--X--X----|
I'm just here to say read between the lines

e|----1--1--1--1--0----|
B|----3--3--3--3--1----|
G|----2--2--2--2--0----|
D|----0--0--0--0--2----|
A|----X--X--X--X--3----|
E|----X--X--X--X--X----|
I'm so glad that you're mine
'Cause you

e|----0--0--0--0--0--0--0--0--0--0--0--0----|
B|----1--1--1--1--1--1--1--1--1--1--1--1----|
G|----0--0--0--0--0--0--0--0--0--0--0--0----|
D|----0--0--2--2--0--0--2--2--0--0--2--2----|
A|----2--2--3--3--2--2--3--3--2--2--3--3----|
E|----3--3--X--X--3--3--X--X--3--3--X--X----|
make me happy
You make me wanna sing 

e|----0--0--0--0----|
B|----1--1--1--1----|
G|----0--0--0--0----|
D|----0--0--2--2----| (continue pattern till end)
A|----2--2--3--3----|
E|----3--3--X--X----|
Do do do do do do
Do do do do do
Do do do do do do
Do do do
Do do do do do do
Do do do do do
Do do do do do do
Do do do
Do do do do do do
Do do do do do do
Tap to rate this tab
# A B C D E F G H I J K L M N O P Q R S T U V W X Y Z