Guitaretab - guitar tabs
Song name
# A B C D E F G H I J K L M N O P Q R S T U V W X Y Z

Drake Bell - Break Me Down tab

Artist: RED
Song: Break me down
Album: End of silence
year: 2006
Tuning: Drop C
*=palm mute
~=note cut
>=let ring
/=slide up to next note
\=slide down to next note
&=continues to next part with no breaks

Couldnt figure out the first intro part.


2nd intro at 0:29 (distorted electric guitar):
D|--------------------------------------------------x-|
A|--------------------------------------------------x-|
F|--------------------------------------------------x-|
C|-1>----9>----6>----9>----0--1>----4>----6>----9-----|0x
G|-1>----9>----6>----9>----0--1>----4>----6>----9-----|0x
C|-1>----9>----6>----9>----0--1>----4>----6>----9-----|0x

Verse 1 at 0:47

Chorus at 1:23:
D|--------------------------------------------------x-|
A|--------------------------------------------------x-|
F|--------------------------------------------------x-|
C|-1>----9>----6>----9>----0--1>----4>----6>----9-----|0x
G|-1>----9>----6>----9>----0--1>----4>----6>----9-----|0x
C|-1>----9>----6>----9>----0--1>----4>----6>----9-----|0x

verse 2 at 1:43 (those little guitar scratches)
D|--------------------------------------------------x-|
A|--------------------------------------------------x-|
F|--------------------------------------------------x-|
C|--------------------------------------------------x-|
G|-1~1----------------------------1-1-1-1~1---------x-|
C|-1~1----------------------------1-1-1-1~1---------x-|

2nd part of verse 2 at 2:02
D|--------------------------------------------------x-|
A|--------------------------------------------------x-|
F|--------------------------------------------------x-|
C|--------------------------------------------------x-|
G|-1~1----------------------------1-1-1-1~1---------x-|
C|-1~1----------------------------1-1-1-1~1---------x-|

Chorus at 2:19
D|----------------------------------------------------|
A|----------------------------------------------------|
F|----------------------------------------------------|
C|-1>----9>----6>----9>----0--1>----4>----6>----9--0--|
G|-1>----9>----6>----9>----0--1>----4>----6>----9--0--|
C|-1>----9>----6>----9>----0--1>----4>----6>----9--0--| (X2)
[ Tab from: http://www.guitaretab.com/d/drake-bell/96041.html ]
Bridge at 2:58
D|-----------------------------------------------------------------|
A|-----------------------------------------------------------------|
F|-----------------------------------------------------------------|
C|-1-1--1-2--1--10\1-1--1--2--4--1-1--1-2--1--10\1--1--1-2-1-1-2-4-|
G|-1-1--1-2--1--10\1-1--1--2--4--1-1--1-2--1--10\1--1--1-2-1-1-2-4-|
C|-1-1--1-2--1--10\1-1--1--2--4--1-1--1-2--1--10\1--1--1-2-1-1-2-4-|
                                                             * * *
D|------------------------------------------------------------x-|
A|------------------------------------------------------------x-|
F|------------------------------------------------------------x-|
C|-1-1--1-2--1--10\1-1--1--2--4--1-1--1-2--1--10\1--1--1--2-----|4x
G|-1-1--1-2--1--10\1-1--1--2--4--1-1--1-2--1--10\1--1--1--2-----|4x
C|-1-1--1-2--1--10\1-1--1--2--4--1-1--1-2--1--10\1--1--1--2-----|4x

Interlude/chorus at 3:37
D|----------------------------------------------------|
A|----------------------------------------------------|
F|----------------------------------------------------|
C|-1>----9>----6>----9>----0--1>----4>----6>----9--0--|
G|-1>----9>----6>----9>----0--1>----4>----6>----9--0--|
C|-1>----9>----6>----9>----0--1>----4>----6>----9--0--|

Outro/bridge at 3:55
D|-----------------------------------------------------------------|
A|-----------------------------------------------------------------|
F|-----------------------------------------------------------------|
C|-1-1--1-2--1--10\1-1--1--2--4--1-1--1-2--1--10\1--1--1-2-1-1-2-4-|
G|-1-1--1-2--1--10\1-1--1--2--4--1-1--1-2--1--10\1--1--1-2-1-1-2-4-|
C|-1-1--1-2--1--10\1-1--1--2--4--1-1--1-2--1--10\1--1--1-2-1-1-2-4-|(&)
                                                             * * *
D|------------------------------------------------------------x-|
A|------------------------------------------------------------x-|
F|------------------------------------------------------------x-|
C|-1-1--1-2--1--10\1-1--1--2--4--1-1--1-2--1--10\1--1--1--2-----|4x
G|-1-1--1-2--1--10\1-1--1--2--4--1-1--1-2--1--10\1--1--1--2-----|4x
C|-1-1--1-2--1--10\1-1--1--2--4--1-1--1-2--1--10\1--1--1--2-----|4x

This is as close as you can get! I do hope you enjoy playing this song nearly as much as 
did. The times next to the song parts are the exact time that that parts starts in the 
please comment ad let me know if you find any errors. again, enjoy!
Related for Break Me Down tab
×
Break Me Down