Song name
# A B C D E F G H I J K L M N O P Q R S T U V W X Y Z

Drake Nick - Fly tab

sounds almost perfect
DROP D


E|---------------------------------------------|
B|---------------------------------------------|
G|---------------------------------------------|  x6
D|--------4-----------6--------6---------------| 
A|------5---5-------5--------0--------0--------|
E|---0-----------0---------0--------0----------|


E|---------------------------------------|
B|---------------------------------------|
G|---------------------------------------|
D|--------5-----------7-------7----------| 
A|------5---5-------5-------5-------0----|
E|---0------------0-------0--------0-----|


E|---------------------------------------------|
B|---------------------------------------------|
G|---------------------------------------------|   x2
D|--------4-----------6--------6---------------| 
A|------5---5-------5--------0--------0--------|
E|---0-----------0---------0--------0----------|


E|---------------------------------------|
B|---------------------------------------|
G|---------------------------------------|
D|--------5-----------7-------7----------| 
A|------5---5-------5-------5-------0----|
E|---0------------0-------0--------0-----|


E|---------------------------------------------|
B|---------------------------------------------|
G|---------------------------------------------|   
D|--------4-----------6--------6---------------| 
A|------5---5-------5--------0--------0--------|
E|---0-----------0---------0--------0----------|



Chorus
E|------------------------------------------------------------------------|
B|------------------------------------------------------------------------|
G|---5--------4-----------------4---------5------4----------------4-------|  
D|----------------------7--------------------------------7----------------| 
A|----0--------0---------0--------0--------0------0-------0--------0------|
E|---7--------7---------7--------7--------7------7-------7--------7-------|


E|---------------------------------------------------------------------------|
B|---------------------------------------------------------------------------|
G|---------------------------------------------------------------------------|  
D|---7----------6----------4-------6----------7---------6-------4-------6----| 
A|------0----------0---------0-------0-----------0--------0-------0-------0--|
E|---4----4----------4---------4-------4------0----0--------0-------0-------0|


E|------------------------------------------------------------------------|
B|------------------------------------------------------------------------|
G|---5--------4-----------------4---------5------4----------------4-------|  
D|----------------------7--------------------------------7----------------| 
A|----0--------0---------0--------0--------0------0-------0--------0------|
E|---7--------7---------7--------7--------7------7-------7--------7-------|


E|---------------------------------------------------------------------------------------------|
B|---------------------------------------------------------------------------------------------|
G|---------------------------------------------------------------------------------------------|  
D|---7----------6----------4-------6-----------7p5-7p5----5p4-5p4----3p2-3p2----1p0-1p0--------| 
A|------0----------0---------0-------0---------------------------------------------------------|
E|---4----4----------4---------4-------4-------------------------------------------------------|
Tap to rate this tab
# A B C D E F G H I J K L M N O P Q R S T U V W X Y Z