Song name
# A B C D E F G H I J K L M N O P Q R S T U V W X Y Z

Drake Nick - Know tab

 Artist:System of a Down
 Song:Know
 Album:System of a Down
 Tabed By:Cameron Whelan



     W                   H        Q    Q          Q    E  S S S E  S E  S S  
D||-------------------|----------------------||-----------------------------|
A||-------------------|----------------------||-----------------------------|
F||-------------------|----------------------||*----------------------------|
C||-------------------|----------------------||*----------------------------|
G||-------------------|----------------5\----||---0----8--8-8-L-0--0-8--8-8-|
C||-------------------|----------------5\----||---0----8--8-8-L-0--0-8--8-8-|


                                            PM PM                      
  W                 3x  Q    E  S S S S S S E  E     W                 
--------------------||----------------------------|-------------------|
--------------------||----------------------------|-------------------|
-------------------*||----------------------------|-------------------|
-------------------*||----------------------------|-------------------|
--------------------||--0----8--8-8-L-0-0-0-8--8--|-------------------|
--------------------||--0----8--8-8-L-0-0-0-8--8--|-------------------|


  Q    E  S S S S E  E  S S      Q    E  S S S S E  E  E   6x
----------------------------||-----------------------------||
----------------------------||-----------------------------||
----------------------------||*---------------------------*||
----------------------------||*---------------------------*||
--0----8--8-8-L-0-0--4--4-4-||---0----8--8-8-L-0-0--4--4---||
--0----8--8-8-L-0-0--4--4-4-||---0----8--8-8-L-0-0--4--4---||


  Q    E  S S S S E  E  E      S  S S  S  S  S  S S  S  S S  S  S  S  S S  
---------------------------|--10-10---10-10-10-10---10-10---10-10-10-10---|
---------------------------|----------------------------------------------|
---------------------------|----------------------------------------------|
---------------------------|----------------------------------------------|
--0----8--8-8-L-0-0--4--5--|----------------------------------------------|
--0----8--8-8-L-0-0--4--5--|----------------------------------------------|


   S  S S  S  S  S  S S  S  S S  S  S  S  S S  
--10-10---10-10-10-10---10-10---10-10-10-10---|
----------------------------------------------|
----------------------------------------------|
----------------------------------------------|
----------------------------------------------|
----------------------------------------------|


                                     PM PM PM PM PM PM   PM PM PM  
    E  S S E  E  S S S S E  E   4x   E  S  S  E  E  E  S S  E  E   
|-------------------------------||--------------------------------|
|-------------------------------||--------------------------------|
|*-----------------------------*||*-------------------------------|
|*-----------------------------*||*--0--0--0--L--3--0----0--L--3--|
|---0----0-L--3--0-0---0-L--3---||--------------------------------|
|---0----0-L--3--0-0---0-L--3---||--------------------------------|


  PM   PM PM PM PM   PM PM PM    PM   PM PM PM PM   PM PM PM  
  E  S S  E  E  E  S S  E  E     E  S S  E  E  E  S S  E  E   
------------------------------|------------------------------|
------------------------------|------------------------------|
------------------------------|------------------------------|
--0----0--L--3--0----0--L--3--|--0----0--L--3--0----0--L--3--|
------------------------------|------------------------------|
------------------------------|------------------------------|


  PM   PM PM PM PM   PM PM PM    PM PM   PM PM PM PM   PM PM   PM PM PM PM    
  E  S S  E  E  E  S S  E  E     S  S  S S  S  S  S  S S  S  S S  S  S  S  S  
------------------------------|----------------------------------------------|
------------------------------|----------------------------------------------|
------------------------------|----------------------------------------------|
--0----0--L--3--0----0--L--3--|--0--0----0--0--0--3----0--0----0--0--0--3----|
------------------------------|----------------------------------------------|
------------------------------|----------------------------------------------|


  PM PM   PM PM PM PM   PM PM   PM PM PM PM    
  S  S  S S  S  S  S  S S  S  S S  S  S  S  S  
----------------------------------------------|
----------------------------------------------|
----------------------------------------------|
--0--0----0--0--0--3----0--0----0--0--0--3----|
----------------------------------------------|
----------------------------------------------|


  PM PM   PM PM PM PM   PM PM   PM PM PM PM    
  S  S  S S  S  S  S  S S  S  S S  S  S  S  S  
----------------------------------------------|
----------------------------------------------|
----------------------------------------------|
--0--0----0--0--0--3----0--0----0--0--0--3----|
----------------------------------------------|
----------------------------------------------|


  PM PM   PM PM PM PM   PM PM   PM  PM                                
  S  S  S S  S  S  S  S S  S  S S   Q       E.  S E  E  S S E  E  E   
-----------------------------------------|---------------------------|
-----------------------------------------|---------------------------|
-----------------------------------------|--2---2-4--5--L-5-5--5--5--|
--0--0----0--0--0--3----0--0----0--12----|--0---0-2--3--L-3-3--3--3--|
-----------------------------------------|--0---0-2--3--L-3-3--3--3--|
-----------------------------------------|--0---0-2--3--L-3-3--3--3--|


  Q    E  E  S S S S S S E     Q    E  E  S S E  E.  S  
----------------------------|--------------------------|
----------------------------|--------------------------|
--2----4--5-----------------|--2----4--5--L-5-5--5---5-|
--0----2--3--x-x---x---x-x--|--0----2--3--L-3-3--3---3-|
--0----2--3--x-x---x---x-x--|--0----2--3--L-3-3--3---3-|
--0----2--3--x-x---x---x-x--|--0----2--3--L-3-3--3---3-|


  Q    E  E  S S S S S S E     Q    E  E  S S E  E  E     E.  S E  E  H         
----------------------------|--------------------------|-----------------------|
----------------------------|--------------------------|-----------------------|
--2----4--5-----------------|--2----4--5--L-5-5--5--5--|--2---2-4--5-----------|
--0----2--3--x-x---x---x-x--|--0----2--3--L-3-3--3--3--|--0---0-2--3-----------|
--0----2--3--x-x---x---x-x--|--0----2--3--L-3-3--3--3--|--0---0-2--3-----------|
--0----2--3--x-x---x---x-x--|--0----2--3--L-3-3--3--3--|--0---0-2--3-----------|


  E.  S E  E  S S E  E  E     Q    E  E  S S S S S S E   
---------------------------|----------------------------|
---------------------------|----------------------------|
--2---2-4--5--L-5-5--5--5--|--2----4--5-----------------|
--0---0-2--3--L-3-3--3--3--|--0----2--3--x-x---x---x-x--|
--0---0-2--3--L-3-3--3--3--|--0----2--3--x-x---x---x-x--|
--0---0-2--3--L-3-3--3--3--|--0----2--3--x-x---x---x-x--|


  S S S S E  E  S S S S E  E     S S S S E  E  S S S S E  E   
------------------------------|------------------------------|
------------------------------|------------------------------|
------------------------------|------------------------------|
--0-0---0-0--3--0-0---0-0--3--|--0-0---0-0--3--0-0---0-0--3--|
--0-0---0-0--3--0-0---0-0--3--|--0-0---0-0--3--0-0---0-0--3--|
--0-0---0-0--3--0-0---0-0--3--|--0-0---0-0--3--0-0---0-0--3--|


  S S S S E  E  S S S S E  E     S S S S E  E  S S S S E  E     
------------------------------|-------------------------------||
------------------------------|-------------------------------||
------------------------------|------------------------------*||
--0-0---0-0--3--0-0---0-0--3--|--0-0---0-0--3--0-0---0-0--3--*||
--0-0---0-0--3--0-0---0-0--3--|--0-0---0-0--3--0-0---0-0--3---||
--0-0---0-0--3--0-0---0-0--3--|--0-0---0-0--3--0-0---0-0--3---||


  Q    E  E  S S S S S S E     S S S S S S E  S S S S S S E     S S S S S S E   
----------------------------|--------------------------------|-----------------|
----------------------------|--------------------------------|-----------------|
--2----4--5-----------------|--------------------------------|-----------------|
--0----2--3--x-x---x---x-x--|--------------------------------|-----------------|
--0----2--3--x-x---x---x-x--|--------------------------------|-----------------|
--0----2--3--x-x---x---x-x--|--x-x---x---x-x--x-x---x---x-x--|--x-x---x---x-x--|


    S S S S S S E  S S S S S S E   4x  W                   H.           E   
|----------------------------------||-------------------|------------------|
|----------------------------------||-------------------|------------------|
|*--------------------------------*||-------------------|------------------|
|*--0-0---0---0-0--0-0---0---0-0--*||-------------------|------------------|
|---0-0---0---0-0--0-0---0---0-0---||-------------------|------------------|
|---0-0---0---0-0--0-0---0---0-0---||--0----------------|--L------------L--|


  H.           E     W                   W                   H.           E   
--0------------L--|--5----------------|--2----------------|--L------------L--|
--6------------L--|--6----------------|--3----------------|--L------------L--|
--5------------L--|--5----------------|--2----------------|--L------------L--|
------------------|-------------------|-------------------|------------------|
------------------|-------------------|-------------------|------------------|
--3------------L--|--L----------------|--0----------------|--L------------L--|


  H.           E     W                   W                   H.           E   
--5------------L--|--5----------------|--2----------------|--L------------L--|
--6------------L--|--6----------------|--3----------------|--L------------L--|
--5------------L--|--5----------------|--2----------------|--L------------L--|
------------------|-------------------|-------------------|------------------|
------------------|-------------------|-------------------|------------------|
--3------------L--|--3----------------|-------------------|------------------|


  H.           E     W                   W                   H.           E   
--5------------L--|--5----------------|--2----------------|--L------------L--|
--6------------L--|--6----------------|--3----------------|--L------------L--|
--5------------L--|--5----------------|--2----------------|--L------------L--|
------------------|-------------------|-------------------|------------------|
------------------|-------------------|-------------------|------------------|
------------------|-------------------|-------------------|------------------|


                                            PM PM PM PM PM   PM PM   PM PM PM  
  H.           E     H.            Q        E  E  E  S  S  S E  S  S S  S  S   
--5------------L--|--5-------------------|------------------------------------|
--6------------L--|--6-------------------|------------------------------------|
--5------------L--|--5-------------------|------------------------------------|
------------------|----------------------|--0--0--0--0--0----0--0----0--0--0--|
------------------|----------------------|------------------------------------|
------------------|--3------------12\----|------------------------------------|


  E  E  E  S S S E  S S S    E  E  E  S S S E  S S S  
--------------------------|--------------------------|
--------------------------|--------------------------|
--------------------------|--------------------------|
--0--0--0--0-0---0--0---0-|--3--3--3--3-3---3--3---3-|
--------------------------|--------------------------|
--------------------------|--------------------------|


  E  E  E  S S S E  S S S S S    E  E  S S S S S E  S S S S S  
------------------------------|-------------------------------|
------------------------------|-------------------------------|
------------------------------|-------------------------------|
--3--3--3--3-3---3--3-3-3-3-3-|--0--0--0-0-0-0---0--0---0-0-0-|
------------------------------|-------------------------------|
------------------------------|-------------------------------|


  E  E  S S S S S E  S S S    E  E  E  S S S E  S S S  
---------------------------|--------------------------|
---------------------------|--------------------------|
---------------------------|--------------------------|
--0--0--0-0-0-0---0--0---0-|--3--3--3--3-3---3--3---3-|
---------------------------|--------------------------|
---------------------------|--------------------------|


  E  E  E  S S S E  S S S S S      E  E  E  S S S E  S S S E   
------------------------------||------------------------------|
------------------------------||------------------------------|
------------------------------||*-----------------------------|
--3--3--3--3-3---3--3-3-3-3-3-||*--0--0--0--0-0---0--0---0-0--|
------------------------------||---0--0--0--0-0---0--0---0-0--|
------------------------------||---0--0--0--0-0---0--0---0-0--|


  E  E  E  S S S E  S S S E     E  E  E  S S S E  S S S E   
-----------------------------|-----------------------------|
-----------------------------|-----------------------------|
-----------------------------|-----------------------------|
--0--0--0--0-0---0--0---0-0--|--3--3--3--3-3---3--3---3-3--|
--0--0--0--0-0---0--0---0-0--|--3--3--3--3-3---3--3---3-3--|
--0--0--0--0-0---0--0---0-0--|--3--3--3--3-3---3--3---3-3--|


  E  E  S E  S S E  S S S E       E.  S E  E  S S E  E  E   
------------------------------||---------------------------|
------------------------------||---------------------------|
-----------------------------*||--2---2-4--5--L-5-5--5--5--|
--3--3--3-3--3---3--3---3-3--*||--0---0-2--3--L-3-3--3--3--|
--3--3--3-3--3---3--3---3-3---||--0---0-2--3--L-3-3--3--3--|
--3--3--3-3--3---3--3---3-3---||--0---0-2--3--L-3-3--3--3--|


  Q    E  E  S S S S S S E     Q    E  E  S S E  E.  S  
----------------------------|--------------------------|
----------------------------|--------------------------|
--2----4--5-----------------|--2----4--5--L-5-5--5---5-|
--0----2--3--x-x---x---x-x--|--0----2--3--L-3-3--3---3-|
--0----2--3--x-x---x---x-x--|--0----2--3--L-3-3--3---3-|
--0----2--3--x-x---x---x-x--|--0----2--3--L-3-3--3---3-|


  Q    E  E  S S S S S S E     Q    E  E  S S E  E  E     E.  S E  E  H         
----------------------------|--------------------------|-----------------------|
----------------------------|--------------------------|-----------------------|
--2----4--5-----------------|--2----4--5--L-5-5--5--5--|--2---2-4--5-----------|
--0----2--3--x-x---x---x-x--|--0----2--3--L-3-3--3--3--|--0---0-2--3-----------|
--0----2--3--x-x---x---x-x--|--0----2--3--L-3-3--3--3--|--0---0-2--3-----------|
--0----2--3--x-x---x---x-x--|--0----2--3--L-3-3--3--3--|--0---0-2--3-----------|


  E.  S E  E  S S E  E  E     Q    E  E  S S S S S S E    
---------------------------|----------------------------||
---------------------------|----------------------------||
--2---2-4--5--L-5-5--5--5--|--2----4--5-----------------||
--0---0-2--3--L-3-3--3--3--|--0----2--3--x-x---x---x-x--||
--0---0-2--3--L-3-3--3--3--|--0----2--3--x-x---x---x-x--||
--0---0-2--3--L-3-3--3--3--|--0----2--3--x-x---x---x-x--||




Duration Legend
---------------
W - whole
H - half
Q - quarter
E - 8th
S - 16th
T - 32nd
X - 64th
. - note dotted
|-n-|  - n-tuplets


Tablature Legend
----------------
L - tied note
x - dead note
g - grace note
(n) - ghost note
> - accentuded note
NH - natural harmonic
AH - artificial harmonic
TH - tapped harmonic
SH - semi harmonic
PH - pitch harmonic
h - hammer on
p - pull off
b - bend
br - bendRelease
pb - preBend
pbr - preBendRelease
brb - bendReleaseBend
\n/ - tremolo bar dip
\n - tremolo bar dive
-/n - tremolo bar Release up
/n\ - tremolo bar inverted dip
/n - tremolo bar return
-\n - tremolo bar Release down
S - shift slide
s - legato slide
/ -  slide into from below or out of upwards
\ -  slide into from above or out of downwards
~ - vibrato
W - wide vibrato
tr - trill
TP - tremolo picking
T - tapping
S - slap
P - pop
< - fade in
^ - brush up
v - brush down
Tap to rate this tab
 
# A B C D E F G H I J K L M N O P Q R S T U V W X Y Z