Song name
# A B C D E F G H I J K L M N O P Q R S T U V W X Y Z

Drake Nick - Which Will tab

Tuning BF#BEBD#  
     
     
Intro:
     
|----0------0---0|----0---0---0---|----0------0---0|--------0---0---| 
|----0------0---0|----0---0---0---|----0------0---0|--------0---0---| 
|----0------0---0|----2-2-2---2---|----0------0---0|02------2-2-2---| 
|--0---0---0---0-|----------0-----|--0---0---0---0-|--0-----------0-| 
|02------02--02--|0-------------0-|02------02--02--|----0-----------| 
|----------------|--0-------------|----------------|------0---------|
     
|----0------0---0|----0---0---0---|----1-----1-----|----------0-----| 
|----0------0---0|----0---0---0---|----0-----0-----|----7-----7-----| 
|----0------0---0|----2-2-2---2---|----0-----0-----|----0-----0-----|
|--0---0---0---0-|----------0-----|----2--2--2--2--|----7--7--7--7--| 
|02------02--02--|0-------------0-|--2---2-----2-0-|--7---7-----7---| 
|----------------|--0-------------|02------2-------|7-------7-----7-|
     
     
|--------0-------|0---------------|
|-5-------0------|-5-------0------|
|---0-0-----0-0--|---0------------| and rpt bars 3,4 
|--0---0---0---0-|--0--0-----2-2--|
|----------------|------0---2---2-|
|5-------5-------|5-------2-------|
     
     
Verse:
     
Play bars 1 & 2 three times then bars 7 & 8 (the 4 in bar 8 
becoming a 5). Repeat.
     
     
"I don't know, which will you love...."
     
|----------------|----------------|
|----5-----5-----|0-----5-----5---|
|----0-----0-----|0-----0-----0---|
|----5--5--5--5--|---5--5--5--5--0|
|--5---5-----5---|--5-----5-----5-|
|5-------5-----5-|5---5-----5-----|
Tap to rate this tab
# A B C D E F G H I J K L M N O P Q R S T U V W X Y Z