Song name
# A B C D E F G H I J K L M N O P Q R S T U V W X Y Z

Drake - Started From The Bottom tab

This tab is from the cover made by Adam Jensen
video_link [https://www.youtube.com/watch?v=khFJyO0sgg8]


Capo 4
------
  Am      G       F       C   
e||-------------2--------------------||
B||-----1-------2-------1----(1)-(1)-||
G||*----2-----0---------2-----0---0-*||
D||*--2---------------3-------2---0-*||
A||-0-----0---------3-----3-3---2----||
E||---------3-----3------------------||
    1.2.3.4 1.2.3.4 1.2.3.4 1.2.3.4.
Without capo
------------
  C#m     B       A       E   
e||----------------------------------||
B||-----5-------7-------5------------||
G||*----6-------8-------6-----4---4-*||
D||*--6-------9-------7-------6---4-*||
A||-4-----4---------7-----7-7---6----||
E||---------7-----7------------------||
    1.2.3.4 1.2.3.4 1.2.3.4 1.2.3.4.
Tap to rate this tab
# A B C D E F G H I J K L M N O P Q R S T U V W X Y Z