Song name
# A B C D E F G H I J K L M N O P Q R S T U V W X Y Z

Drama - Babak Pertama tab

drama_babak pertama
by ben

solo part

e|-----------------------------------------------------|
b|------------------10/15\10~-10/12\10~---7-8-10-------|
g|--2~~~-----------------------------------------7~----|
d|--2~~~-----/10^~~------------------------------------|
a|-----------------------------------------------------|
e|-----------------------------------------------------|


e|-----------------------------------------------------|
b|-10/15\10~-10/17\10~--10-----------------------------|
g|---------------------*9^-9p7--7----------------------|
d|-----------------------------9---9p7h9---------------|
a|-----------------------------------------------------|
e|-----------------------------------------------------|


e|-*7---*9---*10---*12---*14----14-15-14----17---------|
b|--10^--12^--13^---15^---17^------------15------------|
g|-----------------------------------------------------|
d|-----------------------------------------------------|
a|-----------------------------------------------------|
e|-----------------------------------------------------|


e|-14-15-14---17--14-15-14------------------------------------|
b|----------15-------------15-14//-15//-17//-19//-12//-12^^^--|
g|------------------------------------------------------------|
d|------------------------------------------------------------|
a|------------------------------------------------------------|
e|------------------------------------------------------------|



~  = vibrato
/  = slide
*  = melody (ekot lagu laa)
^  = bend
// = strumming fast
Tap to rate this tab
 
# A B C D E F G H I J K L M N O P Q R S T U V W X Y Z