Song name
# A B C D E F G H I J K L M N O P Q R S T U V W X Y Z

Dramarama - Ive Got Spies tab

Guitar tuning:
Standard tuning


rhythm

E|-----------------------------|
B|-----------------------------|
G|-2-2-2-2-9-9-9-9-10-10-10-10-|
D|-2-2-2-2-9-9-9-9-10-10-10-10-|
A|-0-0-0-0-7-7-7-7-8--8--8--8--|
E|-----------------------------|



E|-------------------|
B|-------------------|
G|-9^----------------|
D|---7-9-10-9-7-7-5-7|
A|-------------------|
E|-------------------|

E|-------------------|
B|-------------------|
G|-9^----------------|
D|---7-9-10-9-3-3-5-7|
A|-------------------|
E|-------------------|

refr.:

E|------|
B|------|
G|-10-12|
D|-10-12|
A|-8--10|
E|------|
Tap to rate this tab
# A B C D E F G H I J K L M N O P Q R S T U V W X Y Z