Song name
# A B C D E F G H I J K L M N O P Q R S T U V W X Y Z

Dramarama - Anything Anything tab

|------------------------------------|X2
|------------------------------------|
|-------------------5-5-5-5--7-7-7-7-|
|-2-2-2-2--5-5-5-5--5-5-5-5--7-7-7-7-|
|-2-2-2-2--5-5-5-5--3-3-3-3--5-5-5-5-|
|-0-0-0-0--3-3-3-3-------------------|

|------------------------------------|X2
|-8-7-8-7-8-7-8-10-------------------|
|------------------------------------|
|------------------------------------|
|------------------------------------|
|------------------------------------|

|------------------------------------|X4
|------------------------------------|
|-------------------5-5-5-5--7-7-7-7-|
|-2-2-2-2--5-5-5-5--5-5-5-5--7-7-7-7-|
|-2-2-2-2--5-5-5-5--3-3-3-3--5-5-5-5-|
|-0-0-0-0--3-3-3-3-------------------|

|------------------------------------|X6
|-8-7-8-7-8-7-8-10-------------------|
|------------------------------------|
|------------------------------------|
|------------------------------------|
|------------------------------------|

|------------------------------------|X6
|------------------------------------|
|-------------------5-5-5-5--7-7-7-7-|
|-2-2-2-2--5-5-5-5--5-5-5-5--7-7-7-7-|
|-2-2-2-2--5-5-5-5--3-3-3-3--5-5-5-5-|
|-0-0-0-0--3-3-3-3-------------------|

|------------------------------------|X7
|-8-7-8-7-8-7-8-10-------------------|
|------------------------------------|
|------------------------------------|
|------------------------------------|
|------------------------------------|
Let Bass jam out for about 1:48-2:15
|------------------------------------|
|------------------------------------|
|-------------------5-5-5-5--7-7-7-7-|
|-2-2-2-2--5-5-5-5--5-5-5-5--7-7-7-7-|
|-2-2-2-2--5-5-5-5--3-3-3-3--5-5-5-5-|
|-0-0-0-0--3-3-3-3-------------------|
  . . . .  . . . .  . . . .  . . . .

|------------------------------------|
|------------------------------------|
|-------------------5-5-5-5--7-7-7-7-|
|-2-2-2-2--5-5-5-5--5-5-5-5--7-7-7-7-|
|-2-2-2-2--5-5-5-5--3-3-3-3--5-5-5-5-|
|-0-0-0-0--3-3-3-3-------------------|
  . . . .  . . . .  . . . .  
GRADUALLY LET GO OF PM FOR THE LAST 4 NOTES(↑)

|------------------------------------|X13
|-8-7-8-7-8-7-8-10-------------------|
|------------------------------------|
|------------------------------------|
|------------------------------------|
|------------------------------------|

AFTER ABOUT THE 9TH REPEAT START TO FADE
Tap to rate this tab
# A B C D E F G H I J K L M N O P Q R S T U V W X Y Z