Song name
# A B C D E F G H I J K L M N O P Q R S T U V W X Y Z

Draw The Emotional - Psychopath tab

http://dte.dotera.net/discography.html#

Draw The Emotional - Psychopath 
Album: For A Sick Boy

   =======================pm==== f =========================            (4x) 
C|------------------------------------------------------------------------|
G|------------------------------(7)---------------------------------------|
D|------------------------------------------------------------------------|
A|-4-4-4-4-4--4--4--4----4---4-4---4--4---4-4-4-4-4--4--4--4---0--0--2--2-|
F|-4-4-4-4-4--4--4--4----4---4-4---4--4---4-4-4-4-4--4--4--4---0--0--2--2-|
A|-4-4-4-4-4--4--4--4----4---4-4---4--4---4-4-4-4-4--4--4--4---0--0--2--2-|

chorus           (4x) bridge                                     opening (2x)
-------------------|-----------------------------x-x-x-x-x-x-x-x-|
-------------------|-----------------------------x-x-x-x-x-x-x-x-|
---------7---------|-----------------------------x-x-x-x-x-x-x-x-|
-4---2---7---7--6--|--4--4--4--4--4--4--4--4--4--x-x-x-x-x-x-x-x-|
-4---2---5---7--6--|--4--4--4--4--4--4--4--4--4--x-x-x-x-x-x-x-x-|
-4---2-------7--6--|--4--4--4--4--4--4--4--4--4--x-x-x-x-x-x-x-x-|


bridge       f                
----------------------------|
----------------------------|
----------------------------|
-4---------(12)----4--------|
-4-----------------4--------|
-4-----------------4--------|


breakdown                                               pm(2x)    f    
----|-------------------------------------------------------|---------|
----|-------------------------------------------------------|---------|
----|--------7-------------7-------------7-------------7----|---------|
-4/-|-4-5-2--7-7--0-4-5-2--7--7---4-5-2--7-7--0-4-5-2--7--0-|----(12)-|
-4/-|-4-5-2--5-7--0-4-5-2--5--7---4-5-2--5-7--0-4-5-2--5--0-|---------|
-4/-|-4-5-2----7--0-4-5-2-----7---4-5-2----7--0-4-5-2-----0-|---------|



pm chorus           (4x)           (3x)        pm opening (2x)
----------------------|--------------|------------|
----------------------|--------------|------------|
------------7---------|--7-----------|--7---------|
-0--4---2---7---7--6--|--7---2---4---|--7---2---0-|
-0--4---2---5---7--6--|--5---2---4---|--5---2---0-|
-0--4---2-------7--6--|------2---4---|------2---0-|
Tap to rate this tab
 
# A B C D E F G H I J K L M N O P Q R S T U V W X Y Z