Song name
# A B C D E F G H I J K L M N O P Q R S T U V W X Y Z

Drawing Mountains - Pb tab

Tabbed By: Alex Boundy
Great, Local to Michigan band Drawing Mountains
8th track off of their debut full length "Sequential Patterns"
BUY HERE: http://drawingmountains.bandcamp.com/
email me: alexskaterb@yahoo.com

x = mute w/ hand (to beat)

Intro x4 (0:00-0:50)
e---x------------------------------------------------------------------------|
B---x----1212121212121212-1212121212121212-----------------------------------|
G---x----1212121212121212-1212121212121212--111111111111111111-111111--11-10-|
D---x----1414141414141414-1414141414141414--121212121212121212-121212--12-11-|
A---x----1212121212121212-1212121212121212--101010101010101010-101010--10-9--|
E---x------------------------------------------------------------------------|

e----------------------------------------------------------------------------|
B----------------------------------------------------------------------------|
G-9-[   ]--------------------------------------------------------------------|
D-10[16x]--------------------------------------------------------------------|
A-8 [   ]--------------------------------------------------------------------|
E----------------------------------------------------------------------------|

Breakdown (0:51-1:44) [i know the patterns off, listen to it and get it]
e----------------------------------------------------------------15----------|
B--------------------------------------------------------------11------------|
G-12-12-121212-121212-12-///---7-7-777-777-7-----12----------12-------7------|
D-13-13-131313-131313-13-///---8-8-888-888-8-----13--------13---------8------|
A-11-11-111111-111111-11-///---6-6-666-666-6-----11--/quick rake\-----6------|
E----------------------------------------------------------------------------|

Repeat Intro(1:44-Funky Bass Riff)

Intro with alternate strumming and odd time signature(between A minor 9 and D major 9)...

Funky Bass Riff(2:42-3:09)

Last Solos will be added shortly.


Lyrics:
I was just sitting on the couch, oh no
I was just sitting on the couch, oh no
I was just sitting on the couch
Our critique began as all critiques begin, with doubt
[unclear talking under FBR]...the articles in question behave as the rejection of the
old and welcome of the change
Well, given the right circumstances under the reality is just as likely as an "Oh 
my God...DAMMIIT!"
Tap to rate this tab
 
# A B C D E F G H I J K L M N O P Q R S T U V W X Y Z