Song name
# A B C D E F G H I J K L M N O P Q R S T U V W X Y Z

Dreadnaut - Elixer tab

----------------------------------------------------------------------------
                            Dreadanut-Elixer
----------------------------------------------------------------------------

Tabbed by: Moose
Tuning:DRop C

Intro 16x
---------------------------|
---------------------------|
---------------------------|
---------------------------|
5-5-8-5--5-5-5-7-7-7-3-3-3-|
0-0-0-0--0-0-0-0-0-0-3-3-3-|

verse 2x
---------------------------------------------------------------|
---------------------------------------------------------------|
---------------------------------------------------------------|
---------------------------------------------------------------|
-----------8-7--10-------5-8-7-7--------8-7--10-------5-8-7-7--|
0--000-0-0----0---0-0-000--------000-0-0---0---0-0-000---------|

Intro 12x
verse 2x

Bridge
--------------------------------------------------------------|
--------------------------------------------------------------|
--------------------------------------------------------------|
10-------12---------------------------------------------------| 2x
8--------10------------7h8---5h7---5-5-------7h8---5h7---5-5--|
8--------10-----0-0-0-0---0-0---0-0---0-0-0-0---0-0---0-0-----|
              pm. . . .   . .   . .   . . . .   . .   . .
Solo backing
-------------------------|
-------------------------|
---------------------- 1-|3x
-------------------------|
-------7h8---5h7---5-5---|
0-0-0-0---0-0---0-0------|

Bridge 1x
verse 2x

Hardcore outro
----------------------------------|
----------------------------------|
----------------------------------|  4x
----------------------------------|
--------3-2-0-5---------0-3-2-2---|
0-000-0-3-2-0-5-0-0-000-0-3-2-2---|


-----------|
-----------|
-----------|
0----------|
0----------|
0----------|
Let ring

Listen to the song for arrangment

This is all the riffs in the song
and I know, I cant tab for sh#t
Tap to rate this tab
# A B C D E F G H I J K L M N O P Q R S T U V W X Y Z