Song name
# A B C D E F G H I J K L M N O P Q R S T U V W X Y Z

Dreadnaut - Still The Night tab

----------------------------------------------------------------------------
                        Dreadnaut-Still The Night
---------------------------------------------------------------------------
Tuning: Drop C

Intro
----------------------------------|
----------------------------------|
----------------------------------|
------------------------7-7-7-7---|  2x
--------7-10--------7-10----------|
7-7-7-7-----7-7-7-7---------------|
pm. . .     . . . .

--------------------------------|
--------------------------------|
--------------------------------|
--------------------------------|
--------3-5--------3-5-----3-5--|
3-3-3-3----3-3-3-3-----3-3------|
. . . .    . . . .     . .

--------------------------------|
--------------------------------|
--------------------------------|
--------------------------------|
--------5-7--------7-7-7-7-5----|
5-5-5-5-----5-5-5-5-------------|
. . . .     . . . .

                            Chorus
-------------------------------------|
-------------------------------------|
-------------------------------------|   4x
-------------------------------------|
7-7-7-7-3-3-3-3-3-3-3-3-3-3-3-3-3----|
7-7-7-7-3-3-3-3-3-3-3-3-3-3-3-3-3----|


---------------------------------|
---------------------------------|
---------------------------------|
---------------------------------|
7-7-7-7-3-3-3-3--5-5-5-5-5-5-5-5-|
7-7-7-7-3-3-3-3--5-5-5-5-5-5-5-5-|

Just a really rough tab but there is most of the riffs. Didnt include that fill cause I 
know it. This tab was requested by a guy on youtube

Listen to the song for the order
Tap to rate this tab
# A B C D E F G H I J K L M N O P Q R S T U V W X Y Z