Song name
# A B C D E F G H I J K L M N O P Q R S T U V W X Y Z

Dream Evil - I Will Never tab

-------------------------------------------------------------------------------
			     I Will Never - Dream evil
-------------------------------------------------------------------------------
Tabbed by:Rob Laliberte
Email: robertlaliberte24@gmail.com

Tuning:Drop D
Rhythm Guitar
(intro)D           A          F        B      C     D            A
e|----------------------------1---------------------5------------------------|
B|-----3---------1-3p1----------1-------3----5-----6-6---------1-3p1---------|
G|----2-2-2------------------2---2-----3----5-----7---7----------------------|
D|---0---3----2-3-----3p2---3-----3---3----5-----7-----7----2-3-----3p2------|
A|--0--------0-------------3---------1----3-----5----------0-----------------|
D|-0----------------------3--------------------------------------------------|
       B                       (Verse)
e|-----1----------------------||-----------------------------------------|------|
B|----3-3---------------------||o----------------------------------------|------|
G|---3---3-------2----5-------||o----------------------------------------|------|
D|--3-----3-----3----5-----0--||-----0-0-2--3-------0-0-2--3-----------0-|--x2--|
A|-1-----------3----3------0--||----0--------------0-------------3----3--|------|
D|------------3----2-------0--||---0--------------0-----------3-5--3-5---|------|
 (Pre Chorus) w/Distortion 
   B    A    G           F        F  G  F  E   D#         E  D# 
e|---------------------------------------------------------------||----------|
B|--------------------------------------------------------------o||----------|
G|-3----2--------------------------------------------------------||--repeat--|
D|-3----2----5-----------3--------3--5--3---2---1---111---3--1--o||----------|
A|-1----0----5-----------3--------3--5--3---2---1---111---3--1---||----------|
D|-----------5-----0000--3--0000--3--5--3---2---1---111---3--1---||----------|
  (Chorus)   
   D  A  F  B  C  D  A  B  F  E                    
e|--------------------------------||
B|--------------------------------||
G|----2-----3--5--7--2--3---------||
D|-0--2--3--3--5--7--2--3--3--2---||
A|-0--0--3--1--3--5--0--1--3--2---||
D|-0-----3-----------------3--2---||

(Outro) Just play the intro again.

Basically all you need to know for the Rhythm guitar for this song.

| /  slide up
| \  slide down
| h  hammer-on
| p  pull-off
| ~  vibrato
| +  harmonic
| x  Mute note
===============================================================================
Tap to rate this tab
 
# A B C D E F G H I J K L M N O P Q R S T U V W X Y Z