Guitaretab - guitar tabs
Song name
# A B C D E F G H I J K L M N O P Q R S T U V W X Y Z

Dream Evil - The Book Of Heavy Metal tab

Tuning: E,B,G,D,A,C

x=mute lr=let ring

     intro/verse/chorus
E|----------------------------------|
B|----------------------------------|
G|----------------------------------|(x10 in intro+first verse, then 8 times
D|3/5-----6-5-3-5-----6\5-----------| in the other verses,x4 in chorus)
A|1/3-----4-3-1-3-----4\3-----------|
C|----0-0---------0-0-----0-0-0-0---|
      x x         x x     x x x x 
                pre-chorus
E|---------------------------------------------------------------------|
B|---------------------------------------------------------------------|
G|---------------------------------------------------------------------|
D|---------------------------------------------------------------------|
A|5-5-5-5-5-5-5-5-6-6-6-6-6-6-6-6-1-1-1-1-1-1-1-1-8--8--8--8--6-6-6-6--|
C|7-7-7-7-7-7-7-7-8-8-8-8-8-8-8-8-3-3-3-3-3-3-3-3-10-10-10-10-8-8-8-8--|
  x x x x x x x x x x x x x x x x x x x x x x x x x x x x x x x x x x   
  
[ Tab from: http://www.guitaretab.com/d/dream-evil/215695.html ]
 
E|----------------------------------------------------------------|
B|----------------------------------------------------------------|
G|----------------------------------------------------------------|
D|----------------------------------------------------------------|
A|5-5-5-5-5-5-5-5-6-6-6-6-6-6-6-6-8--8--8--8--8--8--8--8---8\5----|
C|7-7-7-7-7-7-7-7-8-8-8-8-8-8-8-8-10-10-10-10-10-10-10-10-10\7----|
  x x x x x x x x x x x x x x x x x  x  x  x  x  x  x  x

chorus

verse

pre-chorus

chorus

            
E|-------------------------------------------------------------|
B|-------------------------------------------------------------|
G|-------------------------------------------------------------|
D|-------------------------------------------------------------|
A|-3lr-------4lr-------3lr-------4lr-------3---4---3---4lr-----|
C|-0lr-------6lr-------0lr-------6lr-------0---6---0---6lr-----|

i haven't  figured out the solo and the stick yet,
so you may be content with what I come up with
Related for The Book Of Heavy Metal tab
×
Best way to learn
"The Book Of Heavy Metal"