Dream Evil - Immortal tab

Tuning:DADGBe

e|-------------------------------------------------------------------------|
B|-------------------------------------------------------------------------|
G|-------------------------------------------------------------------------|
D|-------------------------------------------------------------------------|
A|----5--------8-------7--------3----3h5h7---------------------------------|
D|------0000------000-----000----------------------------------------------|

e|---------------------------------------------------------------------------|
B|---------------------------------------------------------------------------|
G|---------------------------------------------------------------------------|
D|---------------------------------------------------------------------------|
A|----5--------8-------7--------3-----7--------------------------------------|
D|------0000------000-----000---------------8--------------------------------|

e|---------------------------------------------------------------------------|
B|---------------------------------------------------------------------------|
G|---------------------------------------------------------------------------|
D|---------------------------------------------------------------------------|
A|----------8---------7---------3---3h5h7-5--55555-----5--5h7h8----7---------|
D|----8888-------888------888------------------------------------------------|

e|-------------------------------------------------------------------------|
B|-------------------------------------------------------------------------|
G|-------------------------------------------------------------------------|
D|-------------------------------------------------------------------------|
A|-----77777--------7777---------------------------------------------------|
D|-------------------------------------------------------------------------|

Repeat ^______^
corrections in the comment boxes if any
Tap to rate this tab
 
# A B C D E F G H I J K L M N O P Q R S T U V W X Y Z