Dream Evil - Book Of Heavy Metal tab

                     The Book Of Heavy Metal - Dream Evil


Tabbed By: Helland
Email: Einsteinduden@hotmail.com

Tuning: standard, but with the low E tuned down to C
        (this make the tab easier for lazy people)
        If you absolute want to, you can tune down the
        whole guitar and convert the tab into drop C or 
        C-tuning.



METAAAAAAAAAAAAAAAAAAAAAAAAAAALLLLL!!!!!!!!!!!!!!!!!

         x x        x x    x x x x      x x        x x    x x x x
  /E|------------------------------|------------------------------|
 / B|------------------------------|------------------------------|
|  G|-3/5---6\5-3/5----6\5---------|-3/5---6\5-3/5----6\5---------|
|  D|-3/5---6\5-3/5----6\5---------|-3/5---6\5-3/5----6\5---------|
|  A|-1/3---4\3-1/5----4\3---------|-1/3---4\3-1/5----4\3---------|
|  C|----0-0--------0-0----0-0-0-0-|----0-0--------0-0----0-0-0-0-|
|
|                                                         x x x x
|  E|------------------------------|------------------------------|
|  B|------------------------------|------------------------------|
|  G|------------------------------|------------------------------|
|  D|------------------------------|------------------------------|
 \ A|------------------------------|------------------------------|
  \C|------------------------------|----------------------5-4-3-2-|


         x x        x x    x x x x      x x        x x    x x x x
  /E|------------------------------|------------------------------|
 / B|------------------------------|------------------------------|
|  G|-3/5---6\5-3/5----6\5---------|-3/5---6\5-3/5----6\5---------|
|  D|-3/5---6\5-3/5----6\5---------|-3/5---6\5-3/5----6\5---------|
|  A|-1/3---4\3-1/5----4\3---------|-1/3---4\3-1/5----4\3---------|
|  C|----0-0--------0-0----0-0-0-0-|----0-0--------0-0----5-4-3-2-|
|
|                                                     x   x x x x
|  E|------------------------------|------------------------------|
|  B|------------------------------|------------------------------|
|  G|------------------------------|------------------------------|
|  D|------------------------------|------------------------------|
 \ A|------------------------------|-3----------------------------|
  \C|-0----------------------------|-0----------------0---5-4-3-2-|


      x x        x x    x x x x      x x        x x    x x x x
E|------------------------------|------------------------------|
B|------------------------------|------------------------------|
G|-3/5---6\5-3/5----6\5---------|-3/5---6\5-3/5----6\5---------|
D|-3/5---6\5-3/5----6\5---------|-3/5---6\5-3/5----6\5---------| X2
A|-1/3---4\3-1/5----4\3---------|-1/3---4\3-1/5----4\3---------|
C|----0-0--------0-0----0-0-0-0-|----0-0--------0-0----5-4-3-2-|


Apply tapping with pick or finger. Each of these is done several times
  /E|----------------------9h12p9~---12h15p12~---15h18p15------|
 / B|-8h11p8~---7h10p7~----------------------------------------|
|  G|----------------------------------------------------------|
|  D|----------------------------------------------------------|
|  A|----------------------------------------------------------|
|  C|----------------------------------------------------------|
| solo
|  E|---14------<16>------14----/(24)--|
|  B|---16b19r-------13~~-15b17--------|
|  G|----------------------------------|
|  D|----------------------------------|
|\ A|----------------------------------|
| \C|----------------------------------|
|          
|  E|-----------------------------------------------------|
|  B|-----------------------------------------------------|
|  G|-----------------------------------------------------|
|  D|-----------------------------------------------------|
 \ A|-3-------------4----------------3-----------------4--|
  \C|-0-------------6----------------0-----------------6--|



      x x        x x    x x x x      x x        x x    x x x x
E|------------------------------|------------------------------|
B|------------------------------|------------------------------|
G|-3/5---6\5-3/5----6\5---------|-3/5---6\5-3/5----6\5---------|
D|-3/5---6\5-3/5----6\5---------|-3/5---6\5-3/5----6\5---------| X5
A|-1/3---4\3-1/5----4\3---------|-1/3---4\3-1/5----4\3---------|
C|----0-0--------0-0----0-0-0-0-|----0-0--------0-0----5-4-3-2-|



   xxxxxxxx xxxxxxxx xxxxxxxx x x x x  xxxx   
E|------------------------------------------|
B|------------------------------------------|
G|------------------------------------------|
D|-55555555-66666666-11111111-8-8-8-8--6666-|
A|-55555555-66666666-11111111-8-8-8-8--6666-|
C|-77777777-88888888-33333333-10101010-8888-|


   xxxxxxxx xxxxxxxx x x x x x x x x x
E|--------------------------------------------|
B|--------------------------------------------|
G|--------------------------------------------|
D|-55555555-66666666-8-8-8-8-8-8-8-8-8-\\\\\--|
A|-55555555-66666666-8-8-8-8-8-8-8-8-8-\\\\\--|
C|-77777777-88888888-101010101010101010\\\\\--|


      x x        x x    x x x x      x x        x x    x x x x
E|------------------------------|------------------------------|
B|------------------------------|------------------------------|
G|-3/5---6\5-3/5----6\5---------|-3/5---6\5-3/5----6\5---------|
D|-3/5---6\5-3/5----6\5---------|-3/5---6\5-3/5----6\5---------|
A|-1/3---4\3-1/5----4\3---------|-1/3---4\3-1/5----4\3---------|
C|----0-0--------0-0----0-0-0-0-|----0-0--------0-0----5-4-3-2-|

      x x        x x    x x x x      x x        x x    x x x x
E|------------------------------|------------------------------|
B|------------------------------|------------------------------|
G|-3/5---6\5-3/5----6\5---------|-3/5---6\5-3/5----------------|
D|-3/5---6\5-3/5----6\5---------|-3/5---6\5-3/5--scilence...---|
A|-1/3---4\3-1/5----4\3---------|-1/3---4\3-1/5----------------|
C|----0-0--------0-0----0-0-0-0-|----0-0-----------------------|

      x x        x x    x x x x      x x        x x    x x x x
E|------------------------------|------------------------------|
B|------------------------------|------------------------------|
G|-3/5---6\5-3/5----6\5---------|-3/5---6\5-3/5----6\5---------|
D|-3/5---6\5-3/5----6\5---------|-3/5---6\5-3/5----6\5---------| X4
A|-1/3---4\3-1/5----4\3---------|-1/3---4\3-1/5----4\3---------|
C|----0-0--------0-0----0-0-0-0-|----0-0--------0-0----5-4-3-2-|


    xxxxxxx xxxxxxxx xxxxxxxx x x x x  xxxx   
E|------------------------------------------|
B|------------------------------------------|
G|------------------------------------------|
D|-55555555-66666666-11111111-8-8-8-8--6666-|
A|-55555555-66666666-11111111-8-8-8-8--6666-|
C|-77777777-88888888-33333333-10101010-8888-|


   xxxxxxxx xxxxxxxx x x x x x x x x x
E|--------------------------------------------|
B|--------------------------------------------|
G|--------------------------------------------|
D|-55555555-66666666-8-8-8-8-8-8-8-8-8-\\\\\--|
A|-55555555-66666666-8-8-8-8-8-8-8-8-8-\\\\\--|
C|-77777777-88888888-101010101010101010\\\\\--|


      x x        x x    x x x x      x x        x x    x x x x
E|------------------------------|------------------------------|
B|------------------------------|------------------------------|
G|-3/5---6\5-3/5----6\5---------|-3/5---6\5-3/5----6\5---------|
D|-3/5---6\5-3/5----6\5---------|-3/5---6\5-3/5----6\5---------| X2
A|-1/3---4\3-1/5----4\3---------|-1/3---4\3-1/5----4\3---------|
C|----0-0--------0-0----0-0-0-0-|----0-0--------0-0----5-4-3-2-|

         x x x x         x  x x x          x  x x x     
E|-----------------------------------------------------|
B|-----------------------------------------------------|
G|-----------------------------------------------------|
D|-----------------------------------------------------|
A|-3-------------4----------------3-----------------4--|
C|-0-----0-0-0-0-6------(0)-0-0-0-0-------(0)-0-0-0-6--|


    x x x x     x x x x x      x x x x x      x x x x x
E|---------------------------------------------------------|
B|---------------------------------------------------------|
G|---------------------------------------------------------|
D|---------------------------------------------------------|
A|----------3-------------4--------------3--------------4--|
C|--6-6-6-3-0---0-0-0-0-0-6----6-6-6-6-3-0----0-0-0-0-0-6--|


Then some solo i can't figure out exept:

 /E|----------------------------------------|
| B|--6~~~~~~~~~~~~~~~~~~~~~~~~~~~~~~~~~~---|
| G|----------------------------------------|
| D|----------------------------------------|
| A|----------------------------------------|
| C|----------------------------------------|
|
|     x x   x x   x   x x   x   x   x  x x   x x   x   x x   x   x   x
| E|---------------------------------|----------------------------------|
| B|---------------------------------|----------------------------------|
| G|---------------------------------|----------------------------------|
| D|------5-----5---5-----5---6---5--|-----5-----5---5-----5---6---5----|
| A|------3-----3---3-----3---4---3--|-----3-----3---3-----3---4---3----|
 \C|--0-0---0-0---0---0-0---0---0---0|-0-0---0-0---0---0-0---0---0---0--|

 repeat until solo is done


       x x     x x x x x            x x     x x x x x
E|----------------------------|-----------------------------|
B|----------------------------|-----------------------------|
G|----------------------------|-----------------------------|
D|--0------3-0-----------3--5-|--0------3-0-----------6--5--|
A|--0------3-0-----------3--5-|--0------3-0-----------6--5--|
C|--2--2-2-5-2-2-2-2-2-2-5--7-|--2--2-2-5-2-2-2-2-2-2-8--7--|


       x x     x x x x x            x x     x x     x x     x x
E|----------------------------|---------------------------------|
B|----------------------------|---------------------------------|
G|----------------------------|---------------------------------|
D|--0------3-0-----------3--5-|--0------3-0-------------3-0-----|
A|--0------3-0-----------3--5-|--0------3-0-----3-0-------------|
C|--2--2-2-5-2-2-2-2-2-2-5--7-|--2--2-2-5-2-2-2-----2-2-----2-2-|


       x x     x x x x x            x x     x x x x x        
E|----------------------------|-----------------------------|
B|----------------------------|-----------------------------|
G|----------------------------|-----------------------------|
D|--0------3-0-----------3--5-|--0------3-0-----------6--5--|
A|--0------3-0-----------3--5-|--0------3-0-----------6--5--|
C|--2--2-2-5-2-2-2-2-2-2-5--7-|--2--2-2-5-2-2-2-2-2-2-8--7--|

       x x     x x x x x            x x     x x x x x
E|----------------------------|-----------------------------|
B|----------------------------|-----------------------------|
G|----------------------------|-----------------------------|
D|--0------3-0-----------3--5-|--0------3-0-----------6--5--|
A|--0------3-0-----------3--5-|--0------3-0-----------6--5--|
C|--2--2-2-5-2-2-2-2-2-2-5--7-|--2--2-2-5-2-2-2-2-2-2-8--7--|


E|-----------------------|------------------------|
B|-----------------------|------------------------|
G|-----------------------|------------------------|
D|--5----6----1----8--6--|--5----6----1----8--10--|
A|--3----6----1----8--6--|--3----6----1----8--10--|
C|--0----8----3----10-8--|--0----8----3----10-12--|



E|-----------------------|-----------------------|
B|-----------------------|-----------------------|
G|-----------------------|-----------------------|
D|--5----6----1----8--6--|--5----6----8----------|
A|--3----6----1----8--6--|--3----6----8----------|
C|--0----8----3----10-8--|--0----8----10---------|

      x x        x x    x x x x      x x        x x    x x x x
E|------------------------------|------------------------------|
B|------------------------------|------------------------------|
G|-3/5---6\5-3/5----6\5---------|-3/5---6\5-3/5----6\5---------|
D|-3/5---6\5-3/5----6\5---------|-3/5---6\5-3/5----6\5---------| X8
A|-1/3---4\3-1/5----4\3---------|-1/3---4\3-1/5----4\3---------|
C|----0-0--------0-0----0-0-0-0-|----0-0--------0-0----5-4-3-2-|


Then the outro solo with the riff fading out:

      x x        x x    x x x x      x x        x x    x x x x
E|------------------------------|------------------------------|
B|------------------------------|------------------------------|
G|-3/5---6\5-3/5----6\5---------|-3/5---6\5-3/5----6\5---------|
D|-3/5---6\5-3/5----6\5---------|-3/5---6\5-3/5----6\5---------|
A|-1/3---4\3-1/5----4\3---------|-1/3---4\3-1/5----4\3---------|
C|----0-0--------0-0----0-0-0-0-|----0-0--------0-0----5-4-3-2-|

Outro solo:
E|\\\-18b20r-15-18b20~~--18b20r~~---------|
B|----------------------------------------|
G|----------------------------------------|
D|----------------------------------------|
A|----------------------------------------|
C|----------------------------------------|

 tapping several times
E|--15h18p15~~--14h17p14~~--13h16p13~~--12h15p12~~--|
B|--------------------------------------------------|
G|--------------------------------------------------|
D|--------------------------------------------------|
A|--------------------------------------------------|
C|--------------------------------------------------|
                        several times
E|--18b20~~--------------|------------------|
B|-----------------------|--8h11p8--11b13~~-|
G|-----------------4+b~~-|------------------|
D|----------9b10r--------|------------------|
A|-----------------------|------------------|
C|-----------------------|------------------|


| /  slide up
| \  slide down
| h  hammer-on
| p  pull-off
| ~  vibrato
| x  Mute note
Tap to rate this tab
 
# A B C D E F G H I J K L M N O P Q R S T U V W X Y Z