Song name
# A B C D E F G H I J K L M N O P Q R S T U V W X Y Z

Dream Evil - Only For The Night tab

Tempo = 140

Legend
x - dead note
s - slide


e ||------------------------------------------------|
B ||------------------------------------------------|
G ||7-----x--x--------------------x--x--10s---9-----|
D ||7-----x--x--7s----8-----------x--x--10----9-----|
A ||5-----x--x--7-----8-----------x--x--8-----7-----|
E ||------------5-----6-----------------------------|
  
CNT|1  e  +  a  2  e  +  a  3  e  +  a  4  e  +  a  |

                                                    x3
e  |------------------------------------------------||
B  |------------------------------------------------||
G  |------x--x--5-----5-----------------5--------x--||
D  |------x--x--5-----5-----------------5--------x--||
A  |------x--x--3-----3-----------------3--------x--||
E  |------------------------------------------------||

CNT|1  e  +  a  2  e  +  a  3  e  +  a  4  e  +  a  |



e  |------------------------------------------------|
B  |------------------------------------------------|
G  |7-----x--x--------------------x--x--------------|
D  |7-----x--x--7s----8-----------x--x--8s----7-----|
A  |5-----x--x--7-----8-----------x--x--8-----7-----|
E  |------------5-----6-----------------6-----5-----|
  
CNT|1  e  +  a  2  e  +  a  3  e  +  a  4  e  +  a  |


e  |------------------------------------------------|
B  |------------------------------------------------|
G  |------x--x-----------------------------------x--|
D  |------x--x--7s----10----------------10-------x--|
A  |------x--x--7-----10----------------10-------x--|
E  |------------5-----8-----------------8-----------|

CNT|1  e  +  a  2  e  +  a  3  e  +  a  4  e  +  a  |

Tap to rate this tab
 
# A B C D E F G H I J K L M N O P Q R S T U V W X Y Z