Song name
# A B C D E F G H I J K L M N O P Q R S T U V W X Y Z

Dream Evil - Heavy Metal In The Night tab

Dream Evil - "Heavy Metal in the Night"
From album "Dragonslayer" (C) Century Media, 2002

Interpretation by Andreas Larsson (johnnyballe666@hotmail.com)

All the tabs I've seen on the internet are just totally wrong,
here's a working one :)


Drop-D tuning

 ||----||
*||----||*  <= repeat
*||----||*
 ||----||

~~	let ring
ot	over tone
h	hammer on
p	pull off
s	slide
ps	plektrum slide
x	mute note


Intro
e ||----------------------------------------------------------------|
B ||----------------------------------------------------------------|
G*||----------------------------------------------------------------|
D*||7---------------5---------------5---------------5~~~5-5-5-5S7---|
A ||5---------------3---------------2---------------3~~~2-3-2-3s5---|
D ||--0-0-0-0-0-0-0---0-0-0-0-0-0-0---0-0-0-0-0-0-0---------------0-|

  e ----------------------------------------------------------------||
  B ----------------------------------------------------------------||
  G ----------------------------------------------------------------||*
  D 7---------------5---------------5---------------5~~~5-5-5-5S7---||*
  A 5---------------3---------------2---------------3~~~2-3-2-3s5---||
  D --0-0-0-0-0-0-0---0-0-0-0-0-0-0---0-0-0-0-0-0-0---------------0-||

 e |--------------------------------|
 B |--------------------------------|
 G |--------------------------------|
 D |--------------------------------|
 A |8~~~~~~~~~~~~~~-(2)-------------|
 D |8~~~~~~~~~~~~~~-(2)-------------|
                    |----  ps   ----|


Verse
e ||-----------------------------------------------------------------|
B ||-----------------------------------------------------------------|
G*||-----------------------------------------------------------------|
D*||------------------------0-x---------------------------0-----5~~~-|
A ||2-2-2-2-2-2-2-2-2-2-2-2-0h1p0-5-2-2-2-2-2-2-2-2-2-1h2---1-2------|
D ||2-2-2-2-2-2-2-2-2-2-2-2-------5-2-2-2-2-2-2-2-2-2----------------|
                                                                ot
  e ----------------------------------------------------------------||
  B ----------------------------------------------------------------||
  G ----------------------------------------------------------------||*
  D ------------------------0-x----------------------------7~~~~~~~~||*
  A 2-2-2-2-2-2-2-2-2-2-2-2-0h1p0-5-2-2-2-2-2-2-2-25~~~~~~~5~~~~~~~~||
  D 2-2-2-2-2-2-2-2-2-2-2-2-------5-2-2-2-2-2-2-2-25~~~~~~~~--------||


Brigde
 e |----------------------------------------------------------------|
 B |----------------------------------------------------------------|
 G |----------------------------------------------------------------|
 D |----------------------------------------------------------------|
 A |7~~~~~~~~~~~~~~-5~~~~~~~~~~~~~~-7~~~~~~~~~~~~~~-8~~~~~~~10~~~~~~|
 D |7~~~~~~~~~~~~~~-5~~~~~~~~~~~~~~-7~~~~~~~~~~~~~~-8~~~~~~~10~~~~~~|


Chorus
 e |----------------------------------------------------------------|
 B |----------------------------------------------------------------|
 G |----------------------------------------------------------------|
 D |7---------------5---------------5---------------5~~~5-5-5-5S7---|
 A |5---------------3---------------2---------------3~~~2-3-2-3s5---|
 D |--0-0-0-0-0-0-0---0-0-0-0-0-0-0---0-0-0-0-0-0-0---------------0-|

  e ----------------------------------------------------------------|
  B ----------------------------------------------------------------|
  G ----------------------------------------------------------------|
  D 7---------------5---------------5---------------5~~~5-5-5-5S7---|
  A 5---------------3---------------2---------------3~~~2-3-2-3s5---|
  D --0-0-0-0-0-0-0---0-0-0-0-0-0-0---0-0-0-0-0-0-0---------------0-|

  e --------------------------------|
  B --------------------------------|
  G --------------------------------|
  D --------------------------------|
  A 8~~~~~~~~~~~~~~-(2)-------------|
  D 8~~~~~~~~~~~~~~-(2)-------------|
                    |----  ps   ----|

* Verse *

* Intro *


Solo background
e ||-----------------------------------------------------------------|
B ||-----------------------------------------------------------------|
G*||-----------------------------------------------------------------|
D*||------------------------0-x--------------------------------------|
A ||2-2-2-2-2-2-2-2-2-2-2-2-0h1p0-5-2-2-2-2-2-2-2-25~~~~~~~7~~~~~~~~-|
D ||2-2-2-2-2-2-2-2-2-2-2-2-------5-2-2-2-2-2-2-2-25~~~~~~~7~~~~~~~~-|

  e ----------------------------------------------------------------||
  B ----------------------------------------------------------------||
  G ----------------------------------------------------------------||*
  D ------------------------0-x----------------------------7~~~~~~~~||*
  A 2-2-2-2-2-2-2-2-2-2-2-2-0h1p0-5-2-2-2-2-2-2-2-25~~~~~~~5~~~~~~~~||
  D 2-2-2-2-2-2-2-2-2-2-2-2-------5-2-2-2-2-2-2-2-25~~~~~~~~--------||


* Bridge *

* Chorus without ending part x 3 *


Outro
 e ||----------------------------------------------------------------||
 B ||----------------------------------------------------------------||
 G*||----------------------------------------------------------------||*
 D*||----------------------------------------------------------------||*
 A ||8~~~~~~~~~~~~~~-8~~~~~~~~~~~~~~-8~~~~~~~~~~~~~~-8~~~~~~~~~~~~~~-||
 D ||8~~~~~~~~~~~~~~-8~~~~~~~~~~~~~~-8~~~~~~~~~~~~~~-8~~~~~~~~~~~~~~-||
Tap to rate this tab
# A B C D E F G H I J K L M N O P Q R S T U V W X Y Z