Song name
# A B C D E F G H I J K L M N O P Q R S T U V W X Y Z

Dream Evil - Hail To The King tab

----------------------------------------------------------------------------
	               Hail To The King - Dream Evil
----------------------------------------------------------------------------
Tabbed by: dmxd
Email: dmdkid05@sbcglobal.net

Tuning: standard
Intro (rythm guitar)
e|--------------------------------------------------------------------|
B|--------------------------------------------------------------------|
G|--------------------------------------------------------------------|
D|5-------7--8----5---------------------------------------------------|
A|3--5----5--6----3---------X2----------------------------------------|
E|---3----------------------------------------------------------------|
I'm still trying to figure out the other guitar part

Then...
e|--------------------------------------------------------------------|
B|--------------------------------------------------------------------|
G|--------------------------------------------------------------------|
D|5-x-7-xxx-8-x-7-xxx-------------------------------------------------|
A|3-x-5-xxx-6-x-5-xxx-------------------------------------------------|
E|--------------------------------------------------------------------|
For Verse
e|---------------------------------------------------------------------------|
B|---------------------------------------------------------------------------|
G|---------------------------------------------------------------------------|
D|5-x-7-xxx-8-x-7-xxx-5------7--8--------------------------------------------|
A|3-x-5-xxx-6-x-5-xxx-3--5---5--6----X---------------------------------------|
E|-----------------------3---------------------------------------------------|
Chorus
e|---------------------------------------------------------------------------|
B|---------------------------------------------------------------------------|
G|---------------------------------------------------------------------------|
D|5-----7-----3-----5--------------------------------------------------------|
A|3--5--5--5--1--3--3--------------------------------------------------------|
E|---3-----3-----1-----------------------------------------------------------|

This is most of the song I'll be tabbing the rest later
| /  slide up
| \  slide down
| h  hammer-on
| p  pull-off
| ~  vibrato
| +  harmonic
| x  Mute note
============================================================================
Tap to rate this tab
# A B C D E F G H I J K L M N O P Q R S T U V W X Y Z