Guitaretab - guitar tabs
Song name
# A B C D E F G H I J K L M N O P Q R S T U V W X Y Z

Dream Evil - Into The Moonlight tab

Intro 0:00/1:21

D---------------------------------------------------------|
A---------------------------------------------------------|
F---------------------------------------------------------|
C---------------------------------------------------------|
G---------------------------------------------------------|
C--0-0000-0-0000-0-0000-320-320--0-0000-0-0000-10\7-7-7777|

D---------------------------------------------------------|
A---------------------------------------------------------|
F---------------------------------------------------------|
C-----------------------------------320------33-xx-3/7\5--|
G---------------------------------------320--11-xx-1/5\3--|
C-10-10101010--0-0000-0-0000-0-0000-----------------------|

First Ending		   Second Ending (At 1:21, skip first ending)

D----------|		   D----------|
A----------|		   A----------|
F----------|		   F----------|
C-320-320--|		   C---2------|
G----------|		   G---0------|
C----------|		   C----------|


Verse 0:27/0:41/1:34/1:48

D---------------------------------------------------------|
A---------------------------------------------------------|
F---------------------------------------------------------|
C---------------------------------------------------------|
G---------------------------------------------------------|
C-000-000-000-000-000-000-000-000-888-888-888-888-888-888-|

D---------------------------------------------------------|
A---------------------------------------------------------|
F---------------------------------------------------------|
C---------------------------------------------------------|
G---------------------------------------------------------|
C-888-888-888-888-888-888-888-888-888-888-333-333-333-333-|


D-------------------------------------------------|
A-------------------------------------------------|
F-------------------------------------------------|
C-------------------------------------------------|
G-------------------------------------------------|
C-333-333-333-333-333-333-333-333-333-333-333-333-|

D---------------------------------------------------------|
A---------------------------------------------------------|
F---------------------------------------------------------|
C---------------------------------------------------------|
G---------------------------------------------------------|
C101010-101010-101010-101010-101010-101010-101010-101010--|

D-------------------------------------------------------------------------------------|
A-------------------------------------------------------------------------------------|
F-------------------------------------------------------------------------------------|
C----------------|(There are some variations on this part, but     G------1010----88--| 
not that different)
C-1010-1010-88-88---------------------------------------------------------------------|


Chorus 1 0:54/2:01


D---------------------------------------------------------|
A---------------------------------------------------------|
F---------------------------------------------------------|
C--------------------------------------------320-320------|
G-0----10----0----10----8----12----12----10---------------|
C-0----10----0----10----8----12----12----10---------------|


Chorus 2 1:07/2:15


D---------------------------------------------------------|
A---------------------------------------------------------|
F---------------------------------------------------------|
C---------------------------------------------------------|
G-0----10----0----10----8----12-000-12----10--------------|
C-0----10----0----10----8----12-000-12----10--------------|
						  ^Quarter note triplet


Pre-Solo 2:28 (I believe he is using a phaser for this part)


D---------1---------------1-------|
A-----3-----3---------3-----3-----|
F-------2-----2---------2-----2---|
C---0-----------0---0-----------0-|
G---------------------------------|
C-0---------------0---------------|


Solo 1 2:35
		  ~~~  ~~~
D---------------------------------------------------------|
A----------15---15--13------------------------------------|
F-------14--------------15-141514-121412---12-------------|
C-12-15----------------------------------15--15-141514-12-|
G---------------------------------------------------------|
C---------------------------------------------------------|
[ Tab from: http://www.guitaretab.com/d/dream-evil/77023.html ]
D---------------------------------------------------------|
A---------/-13--/---------/-13---/-13---/-13---/\---------|
F---101212----12--12-10-12-----12-----12-----12--1210-----|
C-12-------------------------------------------------12---|
G---------------------------------------------------------|
C---------------------------------------------------------|
	    A.H     ~~~	    /~~~  ^ ^ ^ ^    ^ ^ ^ ^
D----------------13-15-15-----1718171817-1517151715-|
A-----10-13/15/17-----------------------------------|
F---10----------------------------------------------|
C/12------------------------------------------------|
G---------------------------------------------------|
C---------------------------------------------------|
    ^ ^ ^ ^    ^ ^ ^ ^    ^ ^ ^ ^    ^ ^ ^ ^    ^ ^ ^ ^
D-1315131513-1213121312-1315131513-1213121312-1012101210----|
A-----------------------------------------------------------|
F-----------------------------------------------------------|
C-----------------------------------------------------------|
G-----------------------------------------------------------|
C-----------------------------------------------------------|
  ^ ^ ^ ^   ~~~  ~~~ T^ ^  T^ ^
D-9109109-10---/17--201719201719(Iím not sure about how---|
A--------------------------------many times he does this)-|
F---------------------------------------------------------|
C---------------------------------------------------------|
G---------------------------------------------------------|
C---------------------------------------------------------|

  W.B/
D-22/--22-22\20-20\17-17/20-20-15-15/17-17-20-20-15-15-17-|
A---------------------------------------------------------|
F---------------------------------------------------------|
C---------------------------------------------------------|
G---------------------------------------------------------|
C---------------------------------------------------------|
				    ^ ^


D-17-13-13-10-10-13-13-101310--10-------------------------|
A----------------------------13--131110--13--10-----------|
F--------------------------------------13--13--13121012---|
C---------------------------------------------------------|
G---------------------------------------------------------|
C---------------------------------------------------------|
   ~~~ ~~~			 ^ ^
D----------------------------------|
A----------------------------------|
F-10-10----------------------------|
C---------1210---------------------|
G-------------121110-8108--8-------|
C------------------------12-121012-|

Solo 2 3:46

		/  /  ~~~
D-----17-20-20-20--18-171817--17-------------------------/|
A---18----------------------20--20182018171817-----171820-|
F-19------------------------------------------19-19-------|
C---------------------------------------------------------|
G---------------------------------------------------------|
C---------------------------------------------------------|
						 /\			    W.B /\
D-17--/17--/17--/17--/17--/17-17------------/\/\/\---/----|
A---20---20---20---20---20--------2018171817-------17-----|
F---------------------------------------------------------|
C---------------------------------------------------------|
G---------------------------------------------------------|
C---------------------------------------------------------|
    ^ ^		  ^ ^			 ~~ ~~~
D---------------171817--171820-18-20--\15/1717\13-15-10-13|
A-171817--171820------20----------------------------------|
F-------19------------------------------------------------|
C---------------------------------------------------------|
G---------------------------------------------------------|
C---------------------------------------------------------|
		  ~~~       ^ ^			 ~~~
D-12-12-13-12--13-12-101210-9-10-12-9---1310------------|
A-------------------------------------------1310----1310|
F-----------------------------------------------1210----|
C-------------------------------------------------------|
G-------------------------------------------------------|
C-------------------------------------------------------|


D-----------------------------------------|
A-----------------------------------------|
F-1210----1210----------------------------|
C-----1210----1210----1210---------A.H.~~~|
G-----------------1210----1210-8-7-5------|
C-----------------------------------------|


  ^ ^
101210 - Hammer on/Pull off

~~~ - vibrato

  /
12 - bend (all bends whole step unless noted otherwise)

  /\
12   - bend and release

12/13 - slide up

12\11 - slide down

A.H. - artificial harmonic

W.B. - whammy bar used to create sound

T - tap
Related for Into The Moonlight tab