Song name
# A B C D E F G H I J K L M N O P Q R S T U V W X Y Z

Dream Evil - Book Of Heavy Metal tab

-------------------------------------------------------------------------------
		     The Book Of Heavy Metal - Dream Evil
-------------------------------------------------------------------------------

Tabbed by: dstone
Email: prtyboi21@hotmail.com

This is my first tab so hope its worth while to some people.  Took me about
two or three times listening to the song to figure it out and about 1 hour
tabbin the thing out.  I haven't done either of the guitar solos yet but
when I get some more time to sit down and figure them out i'll post a new
one of the solos seperate.  Enjoy!

Tuning: Drop D WHOLE Step Down, C G C F A D

Verse 1:

e|---------------------------------------------------------------------------|\
B|---------------------------------------------------------------------------| \
G|---------------------------------------------------------------------------|  \
D|5/7-------8\7--5/7-------8\7-----------------------------------------------|   \
A|3/5--0-0--6\5--3/5--0-0--6\5--0-0-0-0--------------------------------------|    \
E|-----0-0------------0-0-------0-0-0-0--------------------------------------|     \
										    Repeat x4
e|---------------------------------------------------------------------------|     /
B|---------------------------------------------------------------------------|    /
G|---------------------------------------------------------------------------|   /
D|5/7-------8\7--5/7-------8\7--6-6--5--3------------------------------------|  /
A|3/5--0-0--6\5--3/5--0-0--6\5--6-6--5--3------------------------------------| /
E|-----0-0------------0-0-------6-6--5--3------------------------------------|/

Palm mute the last 4 notes.

Pre-Chorus: Entire Thing Is Palm Muted

e|---------------------------------------------------------------------------|
B|---------------------------------------------------------------------------|
G|---------------------------------------------------------------------------|
D|-7-7-7-7-7-7-7-7--8-8-8-8-8-8-8-8--3-3-3-3-3-3-3-3--10-10-10-10--8-8-8-8---|
A|-7-7-7-7-7-7-7-7--8-8-8-8-8-8-8-8--3-3-3-3-3-3-3-3--10-10-10-10--8-8-8-8---|
E|-7-7-7-7-7-7-7-7--8-8-8-8-8-8-8-8--3-3-3-3-3-3-3-3--10-10-10-10--8-8-8-8---|

e|---------------------------------------------------------------------------|
B|---------------------------------------------------------------------------|
G|---------------------------------------------------------------------------|
D|-7-7-7-7-7-7-7-7--8-8-8-8-8-8-8-8--10-10-10-10-10-10-10-10-10--------------|
A|-7-7-7-7-7-7-7-7--8-8-8-8-8-8-8-8--10-10-10-10-10-10-10-10-10--------------|
E|-7-7-7-7-7-7-7-7--8-8-8-8-8-8-8-8--10-10-10-10-10-10-10-10-10--------------|

Verse 2:

e|---------------------------------------------------------------------------|
B|---------------------------------------------------------------------------|
G|---------------------------------------------------------------------------|
D|5/7-------8\7--5/7-------8\7-----------5/7-------8\7--5/7------------------|
A|3/5--0-0--6\5--3/5--0-0--6\5--0-0-0-0--3/5--0-0--6\5--3/5------------------|
E|-----0-0------------0-0-------0-0-0-0-------0-0----------------------------|


e|---------------------------------------------------------------------------|\
B|---------------------------------------------------------------------------| \
G|---------------------------------------------------------------------------|  \
D|5/7-------8\7--5/7-------8\7-----------------------------------------------|   \
A|3/5--0-0--6\5--3/5--0-0--6\5--0-0-0-0--------------------------------------|    \
E|-----0-0------------0-0-------0-0-0-0--------------------------------------|     \
										    Repeat x4
e|---------------------------------------------------------------------------|     /
B|---------------------------------------------------------------------------|    /
G|---------------------------------------------------------------------------|   /
D|5/7-------8\7--5/7-------8\7--6-6--5--3------------------------------------|  /
A|3/5--0-0--6\5--3/5--0-0--6\5--6-6--5--3------------------------------------| /
E|-----0-0------------0-0-------6-6--5--3------------------------------------|/

Palm mute the last 4 notes.

Pre-Chorus: Entire Thing Is Palm Muted

e|---------------------------------------------------------------------------|
B|---------------------------------------------------------------------------|
G|---------------------------------------------------------------------------|
D|-7-7-7-7-7-7-7-7--8-8-8-8-8-8-8-8--3-3-3-3-3-3-3-3--10-10-10-10--8-8-8-8---|
A|-7-7-7-7-7-7-7-7--8-8-8-8-8-8-8-8--3-3-3-3-3-3-3-3--10-10-10-10--8-8-8-8---|
E|-7-7-7-7-7-7-7-7--8-8-8-8-8-8-8-8--3-3-3-3-3-3-3-3--10-10-10-10--8-8-8-8---|

e|---------------------------------------------------------------------------|
B|---------------------------------------------------------------------------|
G|---------------------------------------------------------------------------|
D|-7-7-7-7-7-7-7-7--8-8-8-8-8-8-8-8--10-10-10-10-10-10-10-10-10--------------|
A|-7-7-7-7-7-7-7-7--8-8-8-8-8-8-8-8--10-10-10-10-10-10-10-10-10--------------|
E|-7-7-7-7-7-7-7-7--8-8-8-8-8-8-8-8--10-10-10-10-10-10-10-10-10--------------|

e|---------------------------------------------------------------------------|\
B|---------------------------------------------------------------------------| \
G|---------------------------------------------------------------------------|  \
D|5/7-------8\7--5/7-------8\7-----------------------------------------------|   \
A|3/5--0-0--6\5--3/5--0-0--6\5--0-0-0-0--------------------------------------|    \
E|-----0-0------------0-0-------0-0-0-0--------------------------------------|     \
										    Repeat x2
e|---------------------------------------------------------------------------|     /
B|---------------------------------------------------------------------------|    /
G|---------------------------------------------------------------------------|   /
D|5/7-------8\7--5/7-------8\7--6-6--5--3------------------------------------|  /
A|3/5--0-0--6\5--3/5--0-0--6\5--6-6--5--3------------------------------------| /
E|-----0-0------------0-0-------6-6--5--3------------------------------------|/

This is the part they start singing "Some twenty years ago..."

e|---------------------------------------------------------------------------|
B|---------------------------------------------------------------------------|
G|---------------------------------------------------------------------------|
D|0-------------------6-------------------0-------------------6--------------|
A|0-------------------6-------------------0-------------------6--------------|
E|0-------------------6-------------------0-------------------6--------------|

e|---------------------------------------------------------------------------|
B|---------------------------------------------------------------------------|
G|---------------------------------------------------------------------------|
D|5--3-3-3--0---0--5-3-0--6--5--3-3-3--0---0--5-3-0--6-----0-----------------|
A|5--3-3-3--0---0--5-3-0--6--5--3-3-3--0---0--5-3-0--6-----0-----------------|
E|5--3-3-3--0---0--5-3-0--6--5--3-3-3--0---0--5-3-0--6-----0-----------------|

Guitar Solo A: (Haven't Done It Yet)

This is the part where they start singin "Read all about it, IN THE BOOK.."

e|---------------------------------------------------------------------------|
B|---------------------------------------------------------------------------|
G|---------------------------------------------------------------------------|
D|2--2-2-----2-2-2-2-2-5-7--2--2-2-----2-2-2-2-2-8-7-------------------------|
A|2--2-2-----2-2-2-2-2-5-7--2--2-2-----2-2-2-2-2-8-7-------------------------|
E|2--2-2-5p2-2-2-2-2-2-5-7--2--2-2-5p2-2-2-2-2-2-8-7-------------------------|

e|---------------------------------------------------------------------------|
B|---------------------------------------------------------------------------|
G|---------------------------------------------------------------------------|
D|2--2-2-----2-2-2-2-2-5-7--2--2-2-----2-------2-5p2-------------------------|
A|2--2-2-----2-2-2-2-2-5-7--2--2-2-----2-2-5p2-------------------------------|
E|2--2-2-5p2-2-2-2-2-2-5-7--2--2-2-5p2-2-------------------------------------|

e|---------------------------------------------------------------------------|\
B|---------------------------------------------------------------------------| \
G|---------------------------------------------------------------------------|  \Repeat x2
D|2--2-2-----2-2-2-2-2-5-7--2--2-2-----2-2-2-2-2-8-7-------------------------|  /
A|2--2-2-----2-2-2-2-2-5-7--2--2-2-----2-2-2-2-2-8-7-------------------------| /
E|2--2-2-5p2-2-2-2-2-2-5-7--2--2-2-5p2-2-2-2-2-2-8-7-------------------------|/

e|---------------------------------------------------------------------------|
B|---------------------------------------------------------------------------|
G|---------------------------------------------------------------------------|
D|0----8----3----10--8-------------------------------------------------------|
A|0----8----3----10--8-------------------------------------------------------|
E|0----8----3----10--8-------------------------------------------------------|

e|---------------------------------------------------------------------------|
B|---------------------------------------------------------------------------|
G|---------------------------------------------------------------------------|
D|0----8----3----10--11------------------------------------------------------|
A|0----8----3----10--11------------------------------------------------------|
E|0----8----3----10--11------------------------------------------------------|

e|---------------------------------------------------------------------------|
B|---------------------------------------------------------------------------|
G|---------------------------------------------------------------------------|
D|0----8----3----10--8--7--8--10---------------------------------------------|
A|0----8----3----10--8--7--8--10---------------------------------------------|
E|0----8----3----10--8--7--8--10---------------------------------------------|

e|---------------------------------------------------------------------------|\
B|---------------------------------------------------------------------------| \
G|---------------------------------------------------------------------------|  \
D|5/7-------8\7--5/7-------8\7-----------------------------------------------|   \
A|3/5--0-0--6\5--3/5--0-0--6\5--0-0-0-0--------------------------------------|    \
E|-----0-0------------0-0-------0-0-0-0--------------------------------------|     \
										    Repeat x4
e|---------------------------------------------------------------------------|     /
B|---------------------------------------------------------------------------|    /
G|---------------------------------------------------------------------------|   /
D|5/7-------8\7--5/7-------8\7--6-6--5--3------------------------------------|  /
A|3/5--0-0--6\5--3/5--0-0--6\5--6-6--5--3------------------------------------| /
E|-----0-0------------0-0-------6-6--5--3------------------------------------|/

Guitar Solo B: (Haven't done it yet)

e|---------------------------------------------------------------------------|
B|---------------------------------------------------------------------------|
G|---------------------------------------------------------------------------|
D|5/7-------8\7--5/7-------8\7-----------------------------------------------|
A|3/5--0-0--6\5--3/5--0-0--6\5--0-0-0-0--------------------------------------|
E|-----0-0------------0-0-------0-0-0-0--------------------------------------|

e|---------------------------------------------------------------------------|
B|---------------------------------------------------------------------------|
G|---------------------------------------------------------------------------|
D|5/7-------8\7--5/7-------8\7--6-6--5--3------------------------------------|
A|3/5--0-0--6\5--3/5--0-0--6\5--6-6--5--3------------------------------------|
E|-----0-0------------0-0-------6-6--5--3------------------------------------|

e|---------------------------------------------------------------------------|
B|---------------------------------------------------------------------------|
G|---------------------------------------------------------------------------|
D|5/7-------8\7--5/7-------8\7-----------------------------------------------|
A|3/5--0-0--6\5--3/5--0-0--6\5--0-0-0-0--------------------------------------|
E|-----0-0------------0-0-------0-0-0-0--------------------------------------|

e|---------------------------------------------------------------------------|
B|---------------------------------------------------------------------------|
G|---------------------------------------------------------------------------|
D|5/7-------8\7--5/7---------------------------------------------------------|
A|3/5--0-0--6\5--3/5---------------------------------------------------------|
E|-----0-0-------------------------------------------------------------------|

Please email me with any suggestions or comments, thanks!


| /  slide up
| \  slide down
| h  hammer-on
| p  pull-off
| ~  vibrato
| +  harmonic
| x  Mute note
===============================================================================
Tap to rate this tab
 
# A B C D E F G H I J K L M N O P Q R S T U V W X Y Z