Song name
# A B C D E F G H I J K L M N O P Q R S T U V W X Y Z

Dream Police - Hot Legs tab

-----------------------------------------------------------------
Hot Legs (INTRO) - Dream Police
-----------------------------------------------------------------
Tabbed by: ikjetil

e|---------------------------------------------------------------|
B|---------------------------------------------------------------|
G|---------------------------------------------------------------|
D|-0h2-0h2p0---0-----------2-------------------------------------|
A|-----------2---0-2p0-------------------------------------------|
E|---------------------0-3---0-----------------------------------|

e|---------------7-6-5-3-5bp3---3--------------------------------|
B|-----3-4-5---x--------------5---5-4-3h4p3---3-------------0----|
G|---x-------x------------------------------4---3-2p0-2/3/4------|
D|-x-------------------------------------------------------------|
A|---------------------------------------------------------------|
E|---------------------------------------------------------------|

e|----------------------------------------------0----------------|
B|----------------------------------------------5---2/3\2--------|
G|-2-0---------0-2p0---0------------------------4---2/3\2--------|
D|-----2-0-0h2-------2---0h2p0---0----------2---2---0------------|
A|-----------------------------2---0-2p0-------------------------|
E|---------------------------------------3b---0------------------|

e|---------0--------------0--------------------------------------|
B|-----3/5-----3p0--------0--------------------------------------|
G|-0-0-------4-----4-0-3b---0-3p0---------2-----0----------------|
D|--------------------------------2-2-5-0-2-x-x-5\---------------|
A|----------------------------------------0-x-x------------------|
E|---------------------------------------------------------------|

e|---------------------------------------------------------------|
B|------------------------------------------3--------------------|
G|------------------------------------------2-2------------------|
D|-------0----2-----0---------------0-----0-0-2------------------|
A|---0h2--0h2---0h2---0-2p0-----0h2---0h2-----0------------------|
E|-0------------------------3-0----------------------------------|


Tablature Legend
----------------
 h   - hammer-on
 p   - pull-off
 b   - bend
 /\  - slide into or out of (from/to "nowhere")

Tap to rate this tab
 
# A B C D E F G H I J K L M N O P Q R S T U V W X Y Z