Dream Police - Wild World tab

----------------------------------------------------------------------------
		     Wild World (INTRO) - Dream Police
----------------------------------------------------------------------------
Tabbed by: ikjetil
Email:

Tuning: e B G D A E

e|-------------------------------------------------------------------------|
B|-------------------------------------------------------------------------|
G|-------------------------------------------------------------------------|
D|-------------------------------------------------------------------------|
A|-5---7-------------------------------------------------------------------|
E|---0---0-3p0-3p0-5-7p5-3p0-----------------------------------------------|

e|---------------------3-0-------------------------------------------------|
B|-------------3---5-------3-----------------------------------------------|
G|---------3/4---4---4-----------------------------------------------------|
D|-------------------------------------------------------------------------|
A|-5---7-------------------------------------------------------------------|
E|---0---0-----------------------------------------------------------------|

e|-------------------------------------------------------------------------|
B|-------------------------------------------------------------------------|
G|-------------------------------------------------------------------------|
D|-------------------------------------------------------------------------|
A|-5---7-------------------------------------------------------------------|
E|---0---0-3p0-3p0-5-7p5-3p0-----------------------------------------------|

e|-------------------------------------------------------------------------|
B|-------------------------------------------------------------------------|
G|---------2h3p2p0-2-0-----------------------------------------------------|
D|---------------------2-0-------------------------------------------------|
A|-5---7-------------------------------------------------------------------|
E|---0---0-----------------------------------------------------------------|


************************************

| /   slide up
| \   slide down
| h   hammer-on
| p   pull-off
| ~   vibrato
| +   harmonic
| x   Mute note
| b   Bend
| pb  Pre-bend
| br  Bend release
| pbr Pre-bend release
| brb Bend release bend

************************************
Tap to rate this tab
 
# A B C D E F G H I J K L M N O P Q R S T U V W X Y Z