Song name
# A B C D E F G H I J K L M N O P Q R S T U V W X Y Z

Dream Theater - Goodnight Kiss tab

 So this is how i play this great Solo in A...Enjoy



At 3:15

-|-------------------------------------------------------------------------|
-|--------------------------------------------------------------------17-19|
-|--13-\9-9/11-13-14-14p13-------13-/9-9-11-13-13b14r13-14-16---16-18------|
-|--------------------------14/9-------------------------------------------|
-|-------------------------------------------------------------------------|
-|-------------------------------------------------------------------------|
 

-|-16-------16-17-16----------16-------16-17-19-/24-24-------------|
-|----17-19----------17-\12------17-19-----------------------------|
-|-----------------------------------------------------------------|
-|-----------------------------------------------------------------|
-|-----------------------------------------------------------------|
-|-----------------------------------------------------------------|
  At 3:43

-|-----------------------------------------------------------------|
-|----12-13----12-13------------15-17b18r--17-15----15b17r-12------|
-|-12-------14-------12--/16-17------------------17----------------|
-|-----------------------------------------------------------------|
-|-----------------------------------------------------------------|
-|-----------------------------------------------------------------|
                                                At 4:07 This
                                                          
-|-----------------------12-13-15-------------------15-17-19-------12---|
-|-12h13p12-----12-13-15-------------------------15-------------15------|
-|----------14-----------------------------12-16-------------12---------|
-|--------------------------------------12------------------------------|
-|----------------------------------------------------------------------|
-|----------------------------------------------------------------------|


-|-13-15-17-20-19----19-20-----19-20------19-20-22-24b25-24--------|
-|----------------20-------22--------20----------------------------|
-|-----------------------------------------------------------------|
-|-----------------------------------------------------------------|
-|-----------------------------------------------------------------|
-|-----------------------------------------------------------------|


-|-22-20-----------20------------------------------------------------------|
-|-------b21r20-18----17-----------13-15-15b16r--15-13-12h13p12h13p12h13p12|
-|------------------------19---/16-----------------------------------------|
-|-------------------------------------------------------------------------|
-|-------------------------------------------------------------------------|
-|-------------------------------------------------------------------------|
                       At 4:54

-|-------------------|------------------------------------------------|
-|-13-\8-7-----------|------------10----------------------------------|
-|---------10-8vvv\--|----7---7-9-9b11-7------------------------------|
-|-------------------|-/9---9------------9vv-/9-7---------------------|
-|-------------------|--------------------------9-7-------7vvv--------|
-|-------------------|------------------------------9-7-9vv-----------|
Tap to rate this tab
# A B C D E F G H I J K L M N O P Q R S T U V W X Y Z