Song name
# A B C D E F G H I J K L M N O P Q R S T U V W X Y Z

Dream Theater - Wither tab

I will tab the rest out, but just the solo for the beginning... dont have that much time
             H        E    E  E  S S    S H         S  E.   E   S   
E||-------|--------------------------|-----------------------------|
B||-------|-----------6----L--L--L-L-|----------------11---13--14~-|
G||-------|--6--------8br--L--L--L-8-|--6-8~--------L--------------|
D||-------|--6-----------------------|-----------------------------|
A||-------|--------------------------|-----------------------------|
E||-------|--------------------------|-----------------------------|


                                   |--3--|  |---3--|  |---3--|   
  H         H           S    S S S E  E  E  E  E   E  E  E   E   
---------------------|------------------------------------------|
--L------------------|--9br~-L-L-L-L--L--L----------------------|
-----------10--------|--------------------------------6--8--10--|
---------------------|----------------------6--8--10------------|
---------------------|------------------------------------------|
---------------------|------------------------------------------|


  |---3---|     |---3--|  |---3--|  |-3-|  
  E  E    E  E  E   E  E  E   E  E  E   S  
------------------------------------------|
--7--9\~--L----------------------7--9--13-|
-----------------------6--8--10-----------|
-------------6--8--10---------------------|
------------------------------------------|
------------------------------------------|


   W      W                               
   |---3--|  |--3--|                      
   E  E   E  E  E  E   Q       E   S   S  
-----------------------------------------|
---L--L---L--L--L--L--14br-----L--14p-13-|
-----------------------------------------|
-----------------------------------------|
-----------------------------------------|
-----------------------------------------|


   H         T  T  S  T  T  T  T  T  S  T  T  T  T  T  
------------------------------------------------------|
--14---------L----14-16-14-16-14----14-16-14-16-14----|
---------------15----------------15----------------15-|
------------------------------------------------------|
------------------------------------------------------|
------------------------------------------------------|


   S  T  T  T  T  T  S  T  T  T  T  T  S  T  T  T  T  T  S  T  T  T  T  T E   
-----------------------------------------------------------------------------|
--14-18-14-18-14----14-18-14-18-14----14-19-14-19-14----14-19-14-19-14-------|
-----------------15----------------15----------------15----------------15-L--|
-----------------------------------------------------------------------------|
-----------------------------------------------------------------------------|
-----------------------------------------------------------------------------|


   W                     W                   W                  
---15br---------------|-------------------|-------------------||
----------------------|--L----------------|--L----------------||
----------------------|-------------------|-------------------||
----------------------|-------------------|-------------------||
----------------------|-------------------|-------------------||
----------------------|-------------------|-------------------||




Duration Legend
---------------
W - whole
H - half
Q - quarter
E - 8th
S - 16th
T - 32nd
X - 64th
. - note dotted
|-n-|  - n-tuplets


Tablature Legend
----------------
L - tied note
x - dead note
g - grace note
(n) - ghost note
> - accentuded note
NH - natural harmonic
AH - artificial harmonic
TH - tapped harmonic
SH - semi harmonic
PH - pitch harmonic
h - hammer on
p - pull off
b - bend
br - bendRelease
pb - preBend
pbr - preBendRelease
brb - bendReleaseBend
\n/ - tremolo bar dip
\n - tremolo bar dive
-/n - tremolo bar Release up
/n\ - tremolo bar inverted dip
/n - tremolo bar return
-\n - tremolo bar Release down
S - shift slide
s - legato slide
/ -  slide into from below or out of upwards
\ -  slide into from above or out of downwards
~ - vibrato
W - wide vibrato
tr - trill
TP - tremolo picking
T - tapping
S - slap
P - pop
< - fade in
^ - brush up
v - brush down
Tap to rate this tab
 
# A B C D E F G H I J K L M N O P Q R S T U V W X Y Z