Song name
# A B C D E F G H I J K L M N O P Q R S T U V W X Y Z

Dream Theater - Fatal Tragedy drum

Album: Metropolis Pt. 2: Scenes from a Memory
Drummer: Mike Portnoy
From 3:39 to the end: Based on John Myunga's transcription.

Come in at 0:36

C   |x---------------|x---------------|
T1  |----------------|-------------o--|
T2  |----------------|--------------o-|
S   |----------------|-----------do---|
B   |o---------------|o---------------|
Hf  |----------------|----------x-----|
    (1 + 2 + 3 + 4 + |1 + 2 + 3 + 4 + )
0:42 >   >   >   >    >   >   >   >    >  etc.
C   |x---------------|----------------|----------------|----------------|
R   |--x-x-x-x-x-x-x-|x-x-x-x---------|----------------|----------------|
H   |----------------|--------s-X-x-x-|x-x-x-x-x-x-x-x-|x-x-x-x-x-X-x-x-|
S   |----o--d----o--d|----o--d----o---|----o-------o---|----o-------o---|
B   |o-------o-------|o-------oo------|o-------o-------|o-------oo------|
Hf  |----------------|------------x---|----------------|------------x---|
    (1 + 2 + 3 + 4 + |1 + 2 + 3 + 4 + |1 + 2 + 3 + 4 + |1 + 2 + 3 + 4 + )
              6/4
C   |------------------------|
H   |x-x-x-x-x-x-x-x-X-------|
T3  |---------------------o--|
T4  |---------------------oo-|
S   |----o-------o-----oo----|
F   |----------------------o-|
B   |o-------o-------o-------|
Hf  |--------------------x---|
    (1 + 2 + 3 + 4 + 5 + 6 + )

1:01         5/4
C   |x-------------------|----------------|----------------|
R   |--x-x-x-x-x-x-x-x-x-|----------------|----------------|
H   |--------------------|x-X-x-x-x-x-x-x-|x-x-x-x-x-x-x-x-|
S   |----o-------o-------|----o-------o---|----o-------o---|
B   |o-------o-------o---|oo------oo------|o-------oo------|
Hf  |--------------------|----------------|----------------|
    (1 + 2 + 3 + 4 + 5 + |1 + 2 + 3 + 4 + |1 + 2 + 3 + 4 + )

1:13
C   |--------------------------------|--------------------------------|
H   |s---X---x---x---x---x---x---x---|x---x---x---x-------------------|
S   |-----o---------------o----------|--------o-----o---o-------o-o---|
F   |--------------------------------|---------------o---o------------|
B   |o-o-------------o-o-------------|o---------------o---o-----------|
B2  |--------------------------------|-----------------o---o----------|
Hf  |--------------------------------|------------------------x-------|
    (1   +   2   +   3   +   4   +   |1   +   2   +   3   +   4   +   )

1:19
C   |x---------------|----------------|x---------------|x---------------|
R   |--x-x-x-x-x-x-x-|x-x-x-x-x-x-x---|----x---b---x---|--b-b-b-b-b-----|
H   |----------------|----------------|--x---x---x---x-|----------------|
T3  |----------------|----------------|----------------|--------------o-|
T4  |----------------|----------------|----------------|--------------o-|
S   |----o-------o---|----o-------o-Fo|----o----g--o--d|----o----o--Fo--|
B   |o-------o-------|o-----o-o--o-o--|o--o---oo--o----|o------o---o----|
    (1 + 2 + 3 + 4 + |1 + 2 + 3 + 4 + |1 + 2 + 3 + 4 + |1 + 2 + 3 + 4 + )

1:33       4/4                9/8
C   |x---------------|x-----------------|
S   |----------------|-----------oo-----|
B   |o---------------|o-------------o---|
B2  |----------------|---------------o--|
    (1 + 2 + 3 + 4 + |1+2+3+4+5+6+7+8+9+)

1:40       4/4
C   |x---------------|x---------------|
H   |----X---X---X-X-|--X-X-X-X-X-X-X-|
S   |----o---o---o---|o---o---o---o-o-|
B   |o--o---o---o-ooo|---o---o---o-o-o|
    (1 + 2 + 3 + 4 + |1 + 2 + 3 + 4 + )

1:47
C   |x-2---2-x-2---2-|x-2---2-x-2---2-|x-2---2---2-----|
H   |----X-------X---|----X-------X---|----X---X-------|
S   |----o-------o---|----o-------o---|----o--o------F-|
B   |o--o---oo--o---o|o--o---oo--o---o|o--o-----o-o-o-o|
    (1 + 2 + 3 + 4 + |1 + 2 + 3 + 4 + |1 + 2 + 3 + 4 + )

1:57      6/8                          9/8 (Expanded)
C   |x-----x-----|x-----x-----|x-----------x--x--x--x--x-----------|
H   |--X-X---X-X-|--X-X---X-X-|----X---X---------------------------|
S   |------o-----|------o-----|------------------------------------|
B   |o--o-o---o-o|o--o-o---o-o|o-----o---o-o--o--o--o--o-----------|
    (1+2+3+4+5+6+|1+2+3+4+5+6+|1 + 2 + 3 + 4 + 5 + 6 + 7 + 8 + 9 + )

2:06     6/4 (2x as fast as quarter notes at A Tempo)
    |--------------------Play 2x----------------------|
C   |b-----x-----------------|------------------------|
H   |--X---------------------|------------------------|
S   |----o-----o-o-----------|F-----F---o-o-----------|
B   |o-o---o-----------------|--o-o---o---------------|
Hf  |----x---x---------------|------------------------|
    (1 + 2 + 3 + 4 + 5 + 6 + |1 + 2 + 3 + 4 + 5 + 6 + )

2:15
C   |------------------------|
T3  |--------------oo--------|
T4  |--oo----oo------oo------|
S   |F-----F-----oo----ooo-o-|
B   |----o-----o-------------|
B2  |-----o-----o------------|
Hf  |------------------------|
    (1 + 2 + 3 + 4 + 5 + 6 + )
                          25/8
S   |--ooo-o---ooo-ooo-ooo-ooo-o---ooo-o---ooo-ooo-ooo-|
    (1+2+3+4+5+6+7+8+9+0+1+2+3+4+5+6+7+8+9+0+1+2+3+4+5+)

2:24
C   |1---1---1---1---|1---1---1---1---|1---1---1---1---|1---1---1---1---|
S   |--------o-------|--------o-------|--------o-------|--------o-------|
B   |o-o-o-----o-o-o-|----o-o--o--o-o-|o-o-o-----o-o-o-|--o-o-o--o--o-o-|
B2  |-o---------o----|-----o----o--o--|-o---------o----|-----o----o--o--|
    (1 + 2 + 3 + 4 + |1 + 2 + 3 + 4 + |1 + 2 + 3 + 4 + |1 + 2 + 3 + 4 + )

C   |1---1---1---1---|1---1---1---1---|1---1---1---1---|1---1---1---1---|
S   |--------o-------|--------o-------|--------o-------|--------o---o---|
B   |o-o-o-----o-o-o-|----o-o--o--o-o-|o-o-o-----o-o-o-|----o-o--o---o--|
B2  |-o---------o----|-----o----o--o--|-o---------o----|-----o----o---o-|
    (1 + 2 + 3 + 4 + |1 + 2 + 3 + 4 + |1 + 2 + 3 + 4 + |1 + 2 + 3 + 4 + )

2:38                                  |-------------Play 2x-------------|
C   |x---1---1---1---|1---1---1---1---|1---1---1---1---|1---1---1---1---|
S   |----o-------o---|----o-------o---|----o-------o---|----o-------o---|
B   |o-o-------o---o-|-----o--o-o--o--|o-o-------o---o-|-----o--o-o--o--|
B2  |-o---------o----|------o--o----o-|-o---------o----|------o--o----o-|
    (1 + 2 + 3 + 4 + |1 + 2 + 3 + 4 + |1 + 2 + 3 + 4 + |1 + 2 + 3 + 4 + )

C   |1---1---1---1---|1---1-----------|
T4  |----------------|--------oo------|
S   |----o-------o---|----o-------oo--|
B   |o-o-------o---o-|--o--o----o---o-|
B2  |-o---------o----|------o----o---o|
    (1 + 2 + 3 + 4 + |1 + 2 + 3 + 4 + )
                      ________________ ________________ ________________
2:52                 |1.& 3.          |2.              |4.              |
C   |x---------------|----------------|----------------|----------------|
R   |--x-x-x-x-x-x-x-|x-x-x-x-x-x-x-x-|x-x-x-x-x-x-x-x-|x-x-x-x-b-------|
S   |o---o---o---o---|o---o---o---o---|o---o---o---o---|o---o-------oooo|
B   |---d--o----d--o-|---d--o----d--o-|---d--o----d-o-o|---d--o-o-------|
B2  |----------------|----------------|--------------o-|----------------|
    (1 + 2 + 3 + 4 + |1 + 2 + 3 + 4 + |1 + 2 + 3 + 4 + |1 + 2 + 3 + 4 + )

3:06
C   |x---------------|----------------|----------------|----------------|
R   |----b---b---b---|b---b---b-bb-bb-|b---b---b---b---|b-bb-bb-b-bb-bb-|
S   |----o-------o---|----o-------o---|----o-------o---|----o-------o---|
B   |o-o-o-o-o-o-o-o-|o-o-o-o-o-o-o-o-|o-o-o-o-o-o-o-o-|o-o-o-o-o-o-o-o-|
B2  |-o-o-o-o-o-o-o-o|-o-o-o-o-o-o-o-o|-o-o-o-o-o-o-o-o|-o-o-o-o-o-o-o-o|
    (1 + 2 + 3 + 4 + |1 + 2 + 3 + 4 + |1 + 2 + 3 + 4 + |1 + 2 + 3 + 4 + )

3:12
C   |x---------------|----------------|x---------------|----------------|
T1  |----------------|----o-----------|----------------|----------------|
T2  |----------------|----o-o---o-o---|----------------|----------------|
T3  |----------------|----------o-o---|----------------|----------------|
S   |o-------------o-|o-----o---------|----------------|--o-o-o-o-o-F---|
F2  |----------------|----------------|----------------|--o-o-o-o-o-----|
B   |----------------|----------------|o---------------|--------------o-|
Hf  |----x---x---x---|----------------|----x---x---x---|x---x---x---x---|
    (1 + 2 + 3 + 4 + |1 + 2 + 3 + 4 + |1 + 2 + 3 + 4 + |1 + 2 + 3 + 4 + )

3:19
C   |x---------------|----------------|x---------------|----------------|
H   |----X---X---X---|X---X---X---X---|----X---X---X---|X---X---X-------|
S   |o-------o-------|o-------o-------|o-------o-------|o-------o---F---|
B   |------o-------o-|------o---o-o-o-|------o-------o-|------o---o---o-|
    (1 + 2 + 3 + 4 + |1 + 2 + 3 + 4 + |1 + 2 + 3 + 4 + |1 + 2 + 3 + 4 + )

3:26
C   |x---------------|----------------|----------------|x---------------|
H   |----X---X---X---|X---X---X---X---|X---X---X---X---|----X---X---X---|
S   |----o-------o---|----o-------o---|----o-------o---|----o-------o---|
B   |o-----o---o---o-|o-----o---o---o-|o-----o---o---o-|o-----o---o---o-|
    (1 + 2 + 3 + 4 + |1 + 2 + 3 + 4 + |1 + 2 + 3 + 4 + |1 + 2 + 3 + 4 + )

C   |x---------------|----------------|
H   |----X---X---X---|X---X---X---X---|
S   |----o-------o---|--o-----o---o---|
B   |o-----o---o---o-|o-----o---o---o-|
    (1 + 2 + 3 + 4 + |1 + 2 + 3 + 4 + )

3:37 4/4 (in triplets)
C   |x-----------|------------|x-----x--x--|
H   |---X--X--X--|X--X--X--X--|---X---X--X-|
S   |---o-----o--|---o-----o--|---o-o--o--o|
B   |o-o--oo-o--o|o-o--oo-o--o|o-o-o-o--o--|
Hf  |------------|------------|--------x--x|
    (1tl2tl3tl4tl|1tl2tl3tl4tl|1tl2tl3tl4tl)

3:44
C   |x-------x--------|----------------|x-x-x---------------|
H   |----X------------|----------------|--------------------|
t   |--------------doo|oooo------------|--------------------|
T1  |-----------------|----oo--oo------|--------------------|
T2  |-----------------|------oo--oo----|--------------------|
T3  |-----------------|------------oo--|--------------------|
T4  |-----------------|--------------oo|--------------------|
S   |--------o-oooo---|----------------|--------oooooo--oo--|
B   |o-----o----------|----------------|o-o-o---------o---o-|
B2  |-------o---------|----------------|---------------o---o|
    (1 + 2 + 3 +tl4 + |1 + 2 + 3 + 4 + |1 + 2 + 3tl+tl4tl+tl)
                                              |-----Play 2x----|
C   |------------------------|2---------------|----------------|
S   |oooooo--oo--oooooo--oo--|o---------------|----------------|
B   |------o---o-------o---o-|----------------|----------------|
B2  |-------o---o-------o---o|----------------|----------------|
    (1tl+tl2tl+tl3tl+tl4tl+tl|1 + 2 + 3 + 4 + |1 + 2 + 3 + 4 + )

END OF THIS SECTION
Look at my other tab of this song for the rest of this song, slighty modified.
Have fun,
Dean Christesen
	
Tap to rate this tab
# A B C D E F G H I J K L M N O P Q R S T U V W X Y Z