Guitaretab - guitar tabs
Song name
# A B C D E F G H I J K L M N O P Q R S T U V W X Y Z

Dream Theater - A Nightmare To Remember tab

BAND: DREAM THEATER
SONG: A NIGHTMARE TO REMEMBER
ALBUM: BLACK CLOUDS AND SILVER LININGS
INSTRUMENT: 6 STRING BASS
TABBED BY: ZINO MEGGAS
GENRE: (REALLY) PROGRESSIVE METAL
~=RING
H=HAMMER ON
P=PULL OFF
B=BEND
/=SLIDE
<>=HARMONIC

INTRO
C----------------------------------------------------------|
G----------------------------------------------------------|
D----------------------------------------------------------|
A----------------------------------------------------------|
E----------------------------------------------------------|
B-4~---7~-6~---5-4-3~---7~-6~---1~---10~-9~-10-9-7~-5~-3~--|

PRE VERSE
C----------------------------|
G----------------------------|
D----------------------------|
A----------------------------|
E----------------------------|
B-1-------------1----1----1--|

VERSE
C-------------------------------------------------I--------------|
G-------------------------------------------------I--------------|
D-------------------------------------------------I--------------|
A-------------------------------------------------I-6-3----------|
E----------2--------------2--------------2--------I-----6-3------|
B-1~-1-3-4---3-2-1~-1-3-4---3-2-1~-1-3-4---3-2-1--I---------6-4--|

VERSE BREAK
C-------------------------------|
G-------------------------------|
D-------------------------------|
A-------------------------------|
E---------6H8-6H8---------------|
B-4B--1~----------4B--1~--4H6~--|

BRIDGE 1
C--------------------------------------------------|
G--------------------------------------------------|
D--------------------------------------------------|
A--------------------------------------------------|
E-1~----------------4-----7------------------------|
B------3~---2~---1~----6~----8~--8-9--11~--9~--8~--|

BRIDGE 2A
C--------------------------------------I--------|
G--------------------------------------I--------|
D--------------------------------------I--------|
A--------------------------------------I--------|
E--------------------------------------I--------|
B-1-1-1-1-111---111-1-1-1-1-1-1-1-111--I-1H3H4--|

BRIDGE 2B
C------------------I------------I---------------|
G------------------I------------I---------------|
D------------------I------------I------8H9H10~--|
A---10----9--------I-8---6------I-8-------------|
E------11---10-----I---8---8----I---8-----------|
B-0------------10--I---------8--I---------------|

BRIDGE 3
C-------------------------------------------------------|
G-------------------------------------------------------|
D-------------------------------------------------------|
A--------14~------------------15~-----------14~---------|
E-11~-----------10~----13~-----------11~-----------10~--|
B-------------------------------------------------------|

INTERLUDE
C-----------------------------------I-----------------------|
G-----------------------------------I-----------------------|
D-1-----------1~----------1---------I-----------------------|
A------10~----------10---------10~--I-----------------------|
E-----------------------------------I-1~----------1~--------|
B-----------------------------------I-------1~----------1~--|

VERSE 2
C------------------------|
G------------------------|
D--------------------6~--|
A-------6~---------------|
E-------------1~---------|
B-1~---------------------|

PRE CHORUS
C---------------|
G---------------|
D---------------|
A---------------|
E-4~---6~-------|
B-----------1~--|

CHORUS
C--------------------------------------------------|
G--------------------------------------------------|
D--------------------------------------------------|
A--------------------------------------------------|
E-4-4-4-4-4-4-4-4-6-6-6-6-6-6-6-6------------------|
B---------------------------------1-1-1-1-1-1-1-1--|

GUITAR SOLO
C-------------------------------|
G-------------------------------|
D-------------------------------|
A-------------------------------|
E---------6H8-6H8---------------|
B-4B--1~----------4B--1~--4H6~--|

KEYBOARD
C--------------------------------------------------|
G--------------------------------------------------|
D---------------------------------------------6----|
A-------------------6H7H8-----------------------8--|
E-------6-----6-7-8---------------6-----6-7-8------|
B-6--9-----9----------------6--9-----9-------------|

CONTITNUUM SOLO
C-----------------------------------------------|
G-----------------------------------------------|
D-----------------------------------------------|
A-----------------------------------------------|
E-------7~----------------------4~--------------|
B-4~----------3~----6~----1~----------7~----3~--|
[ Tab from: http://www.guitaretab.com/d/dream-theater/196161.html ]
BRIDGE 4
C----------------------------------------|
G----------------------------------------|
D----------------------------------------|
A----------------------------------------|
E-5~---1~---4~---7~------------------3~--|
B---------------------7~---3~---6~-------|

INSTRUMENTAL SECTION
C--------------------------------------------|
G--------------------------------------------|
D--------------------------------------------|
A-8-8-8-8-8-8-8-8-8-8-8-8-8-8-8-8-8-8-8-8-8--|
E--------------------------------------------|
B--------------------------------------------|

C----------------------------------------------------------------|
G----------------------------------------------------------------|
D----------------------------3--------------------8--7--6--------|
A----------------1~--------3---3---------------------------8--7--|
E---------------------4~-----------------------------------------|
B-1----1----1--------------------1----12/----1-------------------|

C---------------------------------------------------------------------|
G---------------------------------------------------------------------|
D-3-5-6-----6-5-----5-3-------3-----3-5-6-----6-5-----5-3--8-7-6------|
A-------3-2-----2-1-----1---3---3---------3-2-----2-1------------8-7--|
E-------------------------4-------------------------------------------|
B---------------------------------------------------------------------|

C-----------------------15-----------------------|
G-------11--------11-14---17-----------------8---|
D-----10--10--9-12----------------------------9--|
A---11------11------------------8--------8-11----|
E-13---------------------------8-8---7-10--------|
B---------------------------6-9---9-6------------|

C-13---------------------------------------------------------------------|
G-----14--13-------------------------------------------------------------|
D-------------14--15--------------------10-------------------------------|
A---------------------16--15--11--10--7-----11--10-----------------------|
E---------------------------------------------------12--13---------------|
B-----------------------------------------------------------14-13-9-8-5--|

C-----------------------------------------------------------------|
G-----------------------------------------------------------------|
D-----------------------------------------------------------------|
A-----------------------------------------------------------------|
E----------2--------------2-5-4--------------2--------------5-4~--|
B-1~-1-3-4---3-2-1~-1-3-4-------3-2-1~-1-3-4---3-2-1~-1-3-4-------|

C------------------|
G------------------|
D------------------|
A------------------|
E-/7----6----4--3--|
B------------------|

BRIDGE 5
C---------------------------------------------------|
G---------------------------------------------------|
D---------------------------------------------------|
A---------------------------------------------------|
E-1~----------------4-----7-------------------------|
B------3~---2~---1~----6~----8~---8-9--11~--9~--8~--|

OUTRO A
C--------------------------------------|
G--------------------------------------|
D--------------------------------------|
A--------------------------------------|
E--------------------------------------|
B-1-1-1-1-111---111-1-1-1-1-1-1-1-111--|

OUTRO B
C------------------I------------I--------------|
G------------------I------------I--------------|
D------------------I------------I------8H9H10--|
A---10----9--------I-8---6------I-8------------|
E------11---10-----I---8---8----I---8----------|
B-0------------10--I---------8--I--------------|

OUTRO C
C-------------------------------------------------------|
G-------------------------------------------------------|
D-------------------------------------------------------|
A--------14~------------------15~----11~----14~---------|
E-11~-----------10~----13~-------------------------10~--|
B-------------------------------------------------------|

OUTRO D (THE REAL OUTRO!!!!)
C-----------------------------------------------------------------|
G-----------------------------------------------------------------|
D-----------------------------------------------------------------|
A-----------------------------------------------------------------|
E-----------------------------------------------------------------|
B-4~---7~-6~---5-4-3~---7~-6~---1~---10~-9~-10-9-7~-5~-3~-----4~--|

HOLD THE LAST NOTE UNTILL IT FADES OUT

I REALLY HOPE THIS BASS TAB HELPS YOU LEARN
THIS SONG. THIS SONG IS OVER 16 MINUTES,
SO...MEMORIZE THIS SONG  :-)

P.S.
I SAW DREAM THEATER LIVE...THIS SONG SOUNDS AWESOME LIVE

-ZINO MEGGAS
Related for A Nightmare To Remember tab
×
Best way to learn
"A Nightmare To Remember"