Song name
# A B C D E F G H I J K L M N O P Q R S T U V W X Y Z

Dream Theater - Endless Sacrifice tab

By: Fady FetallicA
e-mail fetallica@yahoo.com

first keyboard solo
on guitar standard tune

-----------------------------------------------------------------------------|
---/10--8-10-11---13-15---10--8-10-10\-----------10-11--13-15--18~-17~-15-13-|
----------------------------------------/7--9-10-----------------------------|
-----------------------------------------------------------------------------|
-----------------------------------------------------------------------------|
-----------------------------------------------------------------------------|


--------------------8--10-10-----|
10\--/11-10--8--6-8--------------|
---------------------------------|
---------------------------------|
---------------------------------|
---------------------------------|


---------8-6-5--3-5---8-10--13---15-17---12--10--8---10-12-10~~\------|
----------------------------------------------------------------------|
----------------------------------------------------------------------|
----------------------------------------------------------------------|
----------------------------------------------------------------------|
----------------------------------------------------------------------|


any correction tell me
Tap to rate this tab
 
# A B C D E F G H I J K L M N O P Q R S T U V W X Y Z