Dream Theater - The Best Of Times tab

-----------------------------------------------------------------------------
The Best Of Times  Dream Theater
-----------------------------------------------------------------------------
Tabbed by: Daniel
Email: daniel_phanotm94@hotmail.com

Tuning: Standard

(1:44)
E|--------------------------------------------------------------------------|
B|------------------------------8-------------------------------------------|
G|--2--4--5--7/9--10----4--5/7-----10--9-7-9----4--5--7/9-9--10--7----------|
D|--------------------------------------------------------------------------|
A|--------------------------------------------------------------------------|
E|--------------------------------------------------------------------------|

E|-------------------0~-----------------------------------------------------|
B|---------------------1~-----------------------------10--------------------|
G|--5--4-----------------2~-----------4-5--7/9-10/12------109h10p9--7------|
D|--------7--7/9--6--------2~-------7---------------------------------------|
A|---------------------------0~---7-----------------------------------------|
E|--------------------------------------------------------------------------|

E|--------------------------------------------------------------------------|
B|----------8--6~--5~-------------------------------------------------------|
G|--4--5/7-----7~--5~--4~--2--------4-5--7/9-9--10p9--7--5--7\4--4----------|
D|---------------------6~---------7-----------------------------------------|
A|------------------------------7-------------------------------------------|
E|--------------------------------------------------------------------------|

       (2:45)
E|-----0~-------------------------------------------------------------------|
B|--4----0~-----------------------------------------------------------------|
G|---------1~---------------------------------------------------------------|
D|-----------2~-------------------------------------------------------------|
A|-------------2~-----------------------------------------------------------|
E|---------------0~---------------------------------------------------------|
Tap to rate this tab
 
# A B C D E F G H I J K L M N O P Q R S T U V W X Y Z