Song name
# A B C D E F G H I J K L M N O P Q R S T U V W X Y Z

Dream Theater - The Ministry Of Lost Souls tab

THE MINISTRY OF LOST SOULS

Title: The Ministry of Lost Souls
Album: Systematic Chaos
Artist: Dream Theater

   Before I tabbed this song, I watched live videos, studied/practice lessons, and 
listening to the song really carefully. Took me a while to
put everything together.

   I nevered tryed tabbing the mid-riff and mid-solo, there's to much going on in it. 
The intro and the outro, and the singing parts. I tabbed the song in two parts, so... it's 
like a shorter version of the song.


standard tuning(EADGBe)

~   vibrato
b   bend
/   slide up
\   slide down
p   pull off
h   hammer on
*   palm mute
()  without picking

some bending notes are gonna be full,
depends, if you get that sound of
the note right...

enjoy!


Part 1   (0:00 - 6:34)

Gtr 1   Dist.
Gtr 2   Clean
Gtr 3   Dist.
Gtr 4   Dist. w/ e-bow


Intro: (0:00)

Gtr 1                                       hold---------\--|
|-------------|--------------|-------------|----------------|
|-------------|--------------|-------------|-------5--------|
|-2-----------|--------------|-5-----------|-------4--------|
|-2-----------|-3------------|-5-----------|-2-----2--------|
|-0-----------|-3------------|-3-----------|-2--------------|
|-------------|-1------------|-3-----------|-0--------------|


|-------------|--------------|------------------|-----------------------|
|-------------|--------------|------------------|-----------------------|
|-2-----------|--------------|-5----------------|-9---------9-----9-----|
|-2-----------|-3------------|-5----------------|-9---------9-----9-----|
|-0-----------|-3------------|-3-----------3--5-|-7---------7-----7-----|
|-------------|-1------------|-3--------3-------|-0-----0-0---0-0----3b-|
                                                        * *   * *
               hold---------\--------------------------------------------|
|-------------|-------1------|------------------|------------------------|
|-------------|-------1------|------------------|-----------5------------|
|-2-----------|--------------|-5----------------|-----------4------------|
|-2-----------|-3------------|-5----------------|-2---------2------------|
|-0-----------|-3------------|-3-----------3--5-|-2---------2-----3--2---|
|---------0-0-|-1------------|-3--------3-------|-0-----0-0---0-0--------|
          * *                                           * *   * *

|-------------------|--------------|-----------------|------------------|
|-------------------|--------------|-----------------|------------------|
|-2-----------4--2--|--------------|-5---------------|-9----------------|
|-2-----------2--2--|-3------------|-5---------------|-9----------------|
|-0-------0-0-0--0--|-3------------|-3----------3--5-|-7----------------|
|-------------------|-1------------|-3-------3-------|-0----------------|
          * *


Gtr 2
|-----------------|-----------------|-----------------|----------10--12-|
|----------12--10-|----------12--13-|----------12--10-|----------12--13-|
|---9-10-9--------|---9-10-9--------|---9-10-9--------|---9-10-9--------|
|-----------------|-----------------|-----------------|-----------------|
|-0---------------|-0---------------|-0---------------|-0---------------|
|-----------------|-----------------|-----------------|-----------------|

Riff A 1.1: (0:50)

Gtr 2
|-------0---------|---------3--1-0-|---------0-------|---------0-------|
|---------4-------|-----1----------|-----1-------1---|-------0---------|
|-----5-------5---|---1---1--------|-------0-------0-|-----0-------3-2-|
|---7-------------|-3--------------|---2-------------|---2-------------|
|-0---------0-----|----------------|-3---------3-----|-----------------|
|-----------------|----------------|-----------------|-0---------0-----|

|---------0-------|---------3-------|---------0-------|---------3-------|
|-------1---1-----|-----1-------1---|-------1-----1---|-------3-----3---|
|-----4-------4---|---0---0-------0-|-----0---------0-|-----0---------0-|
|---2-----------2-|-3---------3-----|---2-------------|---0-------------|
|-0---------------|-----------------|-3---------3-----|-----------------|
|-----------------|-----------------|-----------------|-3---------3-----|

|---------3-------|
|-------4---4-----|
|-----4-------4---|
|---5-----------5-|
|-----------------|
|-3---------------|

(Vocals Enter)

|-------0---------|---------3--1-0-|---------0-------|---------0-------|
|---------4-------|-----1----------|-----1-------1---|-------0---------|
|-----5-------5---|---1---1--------|-------0-------0-|-----0-------3-2-|
|---7-------------|-3--------------|---2-------------|---2-------------|
|-0---------0-----|----------------|-3---------3-----|-----------------|
|-----------------|----------------|-----------------|-0---------0-----|

|---------0-------|---------3-------|---------0-------|---------3-------|
|-------1---1-----|-----1-------1---|-------1-----1---|-------3-----3---|
|-----4-------4---|---0---0-------0-|-----0---------0-|-----0---------0-|
|---2-----------2-|-3---------3-----|---2-------------|---0-------------|
|-0---------------|-----------------|-3---------3-----|-----------------|
|-----------------|-----------------|-----------------|-3---------3-----|

|---------3-------|
|-------4---4-----|
|-----4-------4---|
|---5-----------5-|
|-----------------|
|-3---------------|


Riff A 1.2:  (1:56)

|-------0---------|---------3--1-0-|---------0-------|---------0-------|
|---------4-------|-----1----------|-----1-------1---|-------0---------|
|-----5-------5---|---1---1--------|-------0-------0-|-----0-------3-2-|
|---7-------------|-3--------------|---2-------------|---2-------------|
|-0---------0-----|----------------|-3---------3-----|-----------------|
|-----------------|----------------|-----------------|-0---------0-----|

|---------0-------|---------3-------|---------0-------|---------0-------|
|-------1---1-----|-----1-------1---|-------1-----1---|-------0-----0---|
|-----4-------4---|---0---0-------0-|-----0---------0-|-----1---------1-|
|---2-----------2-|-3---------3-----|---2-------------|---2-------------|
|-0---------------|-----------------|-3---------3-----|-2---------2-----|
|-----------------|-----------------|-----------------|-----------------|

|---------1---0---|
|-------3---------|
|-----1-----------|
|---2-------------|
|-----------------|
|-0---------------|


Pre-Chorus:  (2:23)

Gtr 2
|-------0---1-----|-----------------|-----------------|------------------|
|-----3-------3---|-------0---1-----|-------3-------1-|--------0---------|
|---2-----------2-|-----2-------2---|-----0---0-------|-0--------0---2-0-|
|-0-------0-------|---2-----------2-|---0-------0-----|----0-------------|
|-----------------|-0-------0-------|-----------------|------------------|
|-----------------|-----------------|-3-----------3---|------3-----3-----|

|-------0---1-----|-------0---------|---------3-------|------------------|
|-----3-------3---|-----------1-----|-------3-----3---|---------5--------|
|---2-----------2-|-----0-------0---|-----0---------0-|-----4--------4---|
|-0-------0-------|---2-----------2-|---0-------------|---2---2--------2-|
|-----------------|-3-------3-------|-----------------|------------------|
|-----------------|-----------------|-3---------3-----|-4----------4-----|


Chorus:  (2:46)

Gtr 1
|-------------|--------------|------------------|----------------------|
|-------------|--------------|------------------|-----------5----------|
|-2-----------|--------------|-5----------------|-----------4----------|
|-2-----------|-3------------|-5----------------|-2---------2----------|
|-0-----------|-3------------|-3----------------|-2---------2-----3--2-|
|-------------|-1------------|-3----------------|-0-----0-0---0-0------|
                                                        * *   * *
                      hold---------\--------------------|
|--------------------|-------1------|-------------------|
|--------------------|-------1------|-------------------|
|-2-----------4--2---|--------------|-5-----------------|
|-2-----------2--2---|-3------------|-5-----------------|
|-0-------0-0-0--0---|-3------------|-3----------3--5---|
|------------------0-|-1------------|-3-------3---------|
          * *

|---------------------|
|---------------------|
|-9---------9-----9---|
|-9---------9-----9---|
|-7---------7-----7---|
|-0-----0-0---0-0---0-|
        * *   * *
(3:10)  JP does play this.

|-------------------------|-------------------------|
|-10-10-10-10-10-10-10-10-|-12-12-12-12-13-13-13-13-|
|-10-10-10-10-10-10-10-10-|-10-10-10-10-10-10-10-10-|
|-10-10-10-10-10-10-10-10-|-10-10-10-10-10-10-10-10-|
|-8--8--8--8--8--8--8--8--|-8--8--8--8--8--8--8--8--|
|-------------------------|-------------------------|

|-------------------------|-8--8--8--8--8--8--8--8--|
|-8--8--8--8--9--9--9--9--|-9--9--9--9--9--9--9--9--|
|-10-10-10-10-10-10-10-10-|-10-10-10-10-10-10-10-10-|
|-10-10-10-10-10-10-10-10-|-10-10-10-10-10-10-10-10-|
|-8--8--8--8--8--8--8--8--|-8--8--8--8--8--8--8--8--|
|-------------------------|-------------------------|

Guitar Solo:  (3:21)

Gtr 3
|----------------|----------------|
|----4b(4)~---6b~|-(6)------------|
|-2---------5----|----5---7---7b~-|
|----------------|----------------|
|----------------|----------------|
|----------------|----------------|

|----------------|----------------|
|----------------|----------------|
|--------/9b(9)--|----------------|
|--------------10|-9~----(2)/8-7~-|
|----------------|----------------|
|----------------|----------------|


|----------------|----------------|
|-12b(12)-10--18b|~(18)----15~-17b|
|----------------|------17~-------|
|----------------|----------------|
|----------------|----------------|
|----------------|----------------|

|----------------|------------|------------|----------------|
|~(17)~15~-------|---------15-|16~-----16b-|(16b)~----------|
|---------17~-16~|------16----|------------|----------------|
|----------------|---17-------|------------|----------------|
|----------------|------------|------------|----------------|
|----------------|------------|------------|----------------|

(4:09)

|-15-15b-11---------------------|
|-----------12---------15-------|
|----------------12h14b-(14bp12)|
|-------------------------------|
|-------------------------------|
|-------------------------------|

      JP uses e-bow for this part.
Gtr 4
|----------|----------|----------|----------|
|----------|----------|----------|----------|
|-2~-------|-5~-------|(5)~------|-4~----3p2|
|----------|----------|----------|----------|
|----------|----------|----------|----------|
|----------|----------|----------|----------|

|----------|----------|----------|----------|----------|
|----------|----------|----------|----------|----------|
|(2)~------|-5~-------|(5)~------|-9~-------|---10p9---|
|----------|----------|----------|----------|----------|
|----------|----------|----------|----------|----------|
|----------|----------|----------|----------|----------|

Pre-Chorus 2:  (4:38)

Gtr 1
|----------|----------|----------|----------|
|----------|----------|----------|----------|
|-7~-------|-5~-------|-4~--(4)h5|-7~-------|
|----------|----------|----------|----------|
|----------|----------|----------|----------|
|----------|----------|----------|----------|

|----------|----------|----------|----------|
|----------|----------|----------|----------|
|(7)~------|-5~-------|-4~-----5-|-4~-----1-|
|----------|----------|----------|----------|
|----------|----------|----------|----------|
|----------|----------|----------|----------|


Chorus 2.1:  (5:00)

Gtr 1
|-------------|--------------|------------------|----------------------|
|-------------|--------------|------------------|-----------5----------|
|-2-----------|--------------|-5----------------|-----------4----------|
|-2-----------|-3------------|-5----------------|-2---------2----------|
|-0-----------|-3------------|-3----------------|-2---------2-----3--2-|
|-------------|-1------------|-3----------------|-0-----0-0---0-0------|
                                                        * *   * *
                      hold---------\--------------------|
|--------------------|-------1------|-------------------|
|--------------------|-------1------|-------------------|
|-2-----------4--2---|--------------|-5-----------------|
|-2-----------2--2---|-3------------|-5-----------------|
|-0-------0-0-0--0---|-3------------|-3----------3--5---|
|------------------0-|-1------------|-3-------3---------|
          * *

|---------------------|
|---------------------|
|-9---------9-----9---|
|-9---------9-----9---|
|-7---------7-----7---|
|-0-----0-0---0-0---3b|
        * *   * *

Chorus 2.2:  (5:23)

Gtr 1
|------------------|------------------|-----------------|
|------------------|------------------|-----------------|
|-2-----------4--2-|------------------|-5---------------|
|-2-----------2--2-|-3----------3-----|-5---------------|
|-0-------0-0-0--0-|-3----------3-----|-3----------3--5-|
|------------------|-1------1-1-1-1-1-|-3-------3-------|
          * *               * *   * *

|------------------------|
|------------------------|
|------------------------|
|-2-----------2--0-------|
|-2-----------------3--2-|
|-0-------0-0------------|
          * *

                     (hold---------\--------------------|           "who
|--------------------|-------1------|-------------------|
|--------------------|-------1------|-------------------|
|-2-----------4--2---|--------------|-5-----------------|
|-2-----------2--2---|-3------------|-5-----------------|
|-0-------0-0-0--0---|-3------------|-3----------3--5---|
|------------------0-|-1------------|-3-------3---------|
          * *
|----------------|----------------|
|----------------|----------------|
|-9--------------|-9--------------|
|-9--------------|-9--------------|
|-7--------------|-7--------------|
|-0--------------|-0------------0-|

Chorus 3: (5:47)

Gtr 1
|------------------|-------------------|
|------------------|-------------------|
|------------------|-2---------4---5-0-|
|-3----------------|-2---------2---2-0-|
|-3----------------|-0---------0---0---|
|-1----------------|-------------------|

|-3------------------|-----------5---5-|
|-3------------------|-----------5---6-|
|-0--------0-0-5---4-|-7---------7---7-|
|-0------------5---5-|-7---------7---7-|
|--------------------|-5---------5---5-|
|-3------------------|-----------------|
           * *

|------------------|--------------------|
|------------------|--------------------|
|------------------|-2----------4---5---|
|-3-----------3----|-2----------2---2---|
|-3-----------3----|-0------0-0-0---0---|
|-1-----------1----|--------------------|
                            * *

|-3------------------|-------------------|
|-3------------------|------------5------|
|-0-------4--5--4--0-|------------4------|
|-0-------5--5--5--0-|-2----------2---2--|
|--------------------|-2----------2---2--|
|-3------------------|-0------0-0-----0--|
                              * *
Chorus 3.2:  (6:09)

Gtr 1
|------------------------|------------------------|
|------------------------|------------------------|
|------------------------|------------------------|
|-7--7--7--7--7--7--7--7-|-10-10-10-10-9--9--9----|
|-5--5--5--5--5--5--5--5-|-7--7--7--7--7--7--7----|
|------------------------|-------------0--0--0--0-|

|------------------------|------------------------|
|------------------------|------------------------|
|------------------------|------------------------|
|-3--3--3--3--3--3--3--3-|-5--5--5--5--5--5--5--5-|
|-3--3--3--3--3--3--3--3-|-------------------5--5-|
|-1--1--1--1--1--1--1--1-|-3--3--3--3--3--3--3--3-|


  hold-----------------\   hold-----------------\---|
|------------------------|--------------------------|
|------------------------|-------------8------------|
|-------5-----------5----|-------7-----------7------|
|----3-----3-----3-----3-|----5---------------------|
|------------------------|--------------------------|
|-5-----------5----------|-7--------7-----7----7----|

  hold-----------------\   hold-----------------\---|
|------------------------|--------------------------|
|-------------10---------|-------5-----6------------|
|-------10----------10---|-------------------7------|
|----10------------------|----7---------------------|
|------------------------|-5--------5-----5-----5---|
|-8--------8-----8-----8-|--------------------------|

  hold--------------------------------------------\---|
|------------------------|----------------------------|
|-------------10----10---|-9--------------------------|
|-------9----------------|-------9------------9-------|
|----------9-------------|-------------9------9-------|
|----7-------------------|----------------------------|
|-0--------------0-----0-|----0-----0------0------0---|



Part 2   (10:42 - 14:57)

Gtr 1  Dist.
Gtr 2  Dist.
Gtr 3  Dist.
Gtr 4  Dist.


Riff B

(10:43)

 Gtr 1
|------------------|------------------|------------------|----------10~-12~|
|----------12~-10~-|----------12~-13~-|----------10b(10)~|-----------------|
|---9-10-9---------|---9-10-9---------|---9-10-9---------|---9-10-9--------|
|------------------|------------------|------------------|-----------------|
|-0----------------|-0----------------|-0----------------|-0---------------|
|------------------|------------------|------------------|-----------------|
 Gtr 2
|------------------|------------------|------------------|-----------------|
|------------------|------------------|------------------|-----------------|
|-----------4~--2~-|-----------4~--5~-|-----------2b-(2~)|---------/7~--9~-|
|----2-3-2---------|----2-3-2---------|----2-3-2---------|---2-3-2---------|
|-0----------------|-0----------------|-0----------------|-0---------------|
|------------------|------------------|------------------|-----------------|
 Gtr 3
|------------------|------------------|------------------|-----------------|
|------------------|------------------|------------------|-----------------|
|-----------4~--2~-|-----------4~--5~-|-----------2b-(2~)|----------4~--5~-|
|----2-3-2---------|----2-3-2---------|----2-3-2---------|---2-3-2---------|
|-0----------------|-0----------------|-0----------------|-0---------------|
|------------------|------------------|------------------|-----------------|
Gtr 4
|------------------|------------------|------------------|-----------------|
|------------------|------------------|------------------|-----------------|
|-2----------------|-2----------------|-2----------------|-2---------------|
|-2----------------|-2----------------|-2----------------|-2---------------|
|-0----------------|-0----------------|-0----------------|-0---------------|
|------------------|------------------|------------------|-----------------|


(10:53)

Gtr 1
|------------------|------------------|------------------|-------------------|
|----------10b(10)~|-8~---------------|------------------|-------------------|
|---9-10-9---------|----10~-9~-10p9p7~|-9b---(9)~-7~--5~-|-7b--(7)7~-5~--4---|
|------------------|------------------|------------------|-------------------|
|-0----------------|------------------|------------------|-------------------|
|------------------|------------------|------------------|-------------------|
Gtr 4                                                      hold-----------\--|
|------------------|------------------|------------------|-------------------|
|------------------|------------------|------------------|-----------5-------|
|-2----------------|------------------|-5----------------|-----------4-------|
|-2----------------|-3----------------|-5----------------|-2---------2-------|
|-0----------------|-3----------------|-3----------------|-2-----------------|
|------------------|-1----------------|-3----------------|-0-----------------|

(11:05)

Gtr 1
|----------17b(17)~|-15~-13~---------|--------------------|
|--17-18-17--------|---------13~-15~-|-20b--(20)~-18~-17~-|
|14----------------|-----------------|--------------------|
|------------------|-----------------|--------------------|
|------------------|-----------------|--------------------|
|------------------|-----------------|--------------------|

|------------------------|---------------------------|
|-20b-----(20)-18~-------|-17~---------15~------(15)\|
|------------------------|---------------------------|
|------------------------|---------------------------|
|------------------------|---------------------------|
|------------------------|---------------------------|
Gtr 2
|----------17b(17)~|-15~-13~---------|--------------------|
|--17-18-17--------|---------13~-15~-|-17b--(17)~-15~-13~-|
|14----------------|-----------------|--------------------|
|------------------|-----------------|--------------------|
|------------------|-----------------|--------------------|
|------------------|-----------------|--------------------|

|------------------------|---------------------------|
|-15b-----(15)-15~-------|-13~---------12~-----------|
|------------------------|---------------------------|
|------------------------|---------------------------|
|------------------------|---------------------------|
|------------------------|---------------------------|
Gtr 3
|------------------|-----------------|--------------------|
|----------10b(10)~|-8~--6~----------|--------------------|
|---9-10-9---------|---------5~--7~--|-9b---(9)~--7~---5~-|
|------------------|-----------------|--------------------|
|-0----------------|-----------------|--------------------|
|------------------|-----------------|--------------------|

|------------------------|------------------------|
|------------------------|------------------------|
|-7b------(7)-7~---------|-5~----------4~---------|
|------------------------|------------------------|
|------------------------|------------------------|
|------------------------|------------------------|
Gtr 4
|------------------|------------------|------------------|
|------------------|------------------|------------------|
|-2----------------|------------------|-5----------------|
|-2----------------|-3----------------|-5----------------|
|-0----------------|-3----------------|-3----------------|
|------------------|-1----------------|-3----------------|

|------------------------|------------------------|
|------------------------|------------------------|
|-9----------------------|-------------9--9--9--9-|
|-9----------------------|-9--9--9--9--9--9--9--9-|
|-7----------------------|-7--7--7--7--7--7--7--7-|
|-0--0--0--0--0--0--0--0-|-0--0--0--0--0--0--0--0-|



Bridge:  (11:36)

Gtr 1

 (hold------------------------------------------\---|
|------------------------|--------------------------|
|------------------------|-------------------3------|
|-------0-----------0----|-------0--------------0---|
|----4-----4-----4-----4-|----4-----4-----4---------|
|-5-----------5----------|-5-----------5------------|
|------------------------|--------------------------|

|------------------------|-------------1--1--1--1-|
|------------------------|-------1--1--1--1--1--1-|
|------------------------|-2--2--2--2--2--2--2--2-|
|-3--3--3--3--3--3--3--3-|-3--3--3--3--3--3--3--3-|
|-3--3--3--3--3--3--3--3-|-3--3--3--3--3--3--3--3-|
|-1--1--1--1--1--1--1--1-|-1--1--1--1--1--1--1--1-|

Chorus:  (11:47)

Gtr 1
                                            hold---------\--|
|-------------|--------------|-------------|----------------|
|-------------|--------------|-------------|-------5--------|
|-2-----------|--------------|-5-----------|-------4--------|
|-2-----------|-3------------|-5-----------|-2-----2--------|
|-0-----------|-3------------|-3-----------|-2--------------|
|-------------|-1------------|-3-----------|-0--------------|


|-------------|--------------|------------------|------------------------|
|-------------|--------------|------------------|------------------------|
|-2-----------|--------------|-5----------------|-9---------9-----9------|
|-2-----------|-3------------|-5----------------|-9---------9-----9------|
|-0-----------|-3------------|-3-----------3--5-|-7---------7-----7------|
|-------------|-1------------|----------3-------|-0-----0-0---0-0---0--3-|
                                                        * *   * *

|-------------------|---------------------|-----------------|
|-------------------|---------------------|-----------------|
|-2---------4----2--|---------------------|-5---------------|
|-2---------2----2--|-3------------3------|-5---------------|
|-0---------0----0--|-3------------3------|-3----------3--5-|
|-------------------|-1--------1-1-1--1-1-|-3-------3-------|
                               * *    * *

|-----------------------|
|------------5----------|
|------------4----------|
|-2----------2----------|
|-2----------2-----3--2-|
|-0------0-0---0-0------|
         * *   * *

|-------------------|---------------------|-----------------|
|-------------------|---------------------|-----------------|
|-2---------4----2--|---------------------|-5---------------|
|-2---------2----2--|-3------------3------|-5---------------|
|-0-----0-0-0----0--|-3------------3------|-3----------3--5-|
|-------------------|-1--------1-1-1--1-1-|-3-------3-------|
        * *                    * *    * *

|------------------------|-------------------------|
|------------------------|-------------------------|
|-9--9--9--9--9--9--9--9-|-9--9--9--9--9--9--9--9--|
|-9--9--9--9--9--9--9--9-|-9--9--9--9--9--9--9--9--|
|-7--7--7--7--7--7--7--7-|-7--7--7--7--7--7--7--7--|
|-0--0--0--0--0--0--0--0-|-0--0--0--0--0--0--0--0--|


|-------------------------|-------------------------|
|-10-10-10-10-10-10-10-10-|-12-12-12-12-13-13-13-13-|
|-10-10-10-10-10-10-10-10-|-10-10-10-10-10-10-10-10-|
|-10-10-10-10-10-10-10-10-|-10-10-10-10-10-10-10-10-|
|-8--8--8--8--8--8--8--8--|-8--8--8--8--8--8--8--8--|
|-------------------------|-------------------------|

|-------------------------|-8--8--8--8--8--8--8--8--|
|-8--8--8--8--9--9--9--9--|-9--9--9--9--9--9--9--9--|
|-10-10-10-10-10-10-10-10-|-10-10-10-10-10-10-10-10-|
|-10-10-10-10-10-10-10-10-|-10-10-10-10-10-10-10-10-|
|-8--8--8--8--8--8--8--8--|-8--8--8--8--8--8--8--8--|
|-------------------------|-------------------------|


Outro/Guitar Solo:  (12:44)


|--------------------|--------------------|
|----4b(4)~-------6b-|-(6)----------------|
|-2------------5-----|------5-----7----7b-|
|--------------------|--------------------|
|--------------------|--------------------|
|--------------------|--------------------|

|--------------------|--------------------|
|--------------------|--------------------|
|------------/9b(9)--|--------------------|
|------------------10|-9~------(2)/8--7~--|
|--------------------|--------------------|
|--------------------|--------------------|

|--------------------|--------------------|
|--12b(12)-10----18b-|~(18)-------15---17b|
|--------------------|-------17~----------|
|--------------------|--------------------|
|--------------------|--------------------|
|--------------------|--------------------|

|--------------------|--------------------|
|~(17)~-15~----------|--------------------|
|------------17~--16~|-----------16~-(16)\|
|--------------------|--------------------|
|--------------------|--------------------|
|--------------------|--------------------|


|--------------------|--------------------|
|----4b(4)~-------6b-|-(6)----------------|
|-2------------5-----|------5-----7----7b-|
|--------------------|--------------------|
|--------------------|--------------------|
|--------------------|--------------------|

|--------------------|--------------------|
|--------------------|--------------------|
|------------/9b(9)--|--------------------|
|------------------10|-9~------(2)/8--7~--|
|--------------------|--------------------|
|--------------------|--------------------|

|--------------------|--------------------|
|--12b(12)-10----18b-|~(18)-17~--15---17b-|
|--------------------|--------------------|
|--------------------|--------------------|
|--------------------|--------------------|
|--------------------|--------------------|

|--------------------|-----------------|-------------------------------|
|~(17)--15~----------|--------------15-|16-----(16)~-----------16-(16)\|
|------------17~--16~|-----------16----|-------------------------------|
|--------------------|--------17-------|-------------------------------|
|--------------------|-----------------|-------------------------------|
|--------------------|-----------------|-------------------------------|


(13:30)

|--------------------|--------------------|
|----7b(7)~-------9b-|-(9)----------------|
|-5------------8-----|------8----10---10b-|
|--------------------|--------------------|
|--------------------|--------------------|
|--------------------|--------------------|

|--------------------|--------------------|
|--------------------|--------------------|
|-----------/12b(12)-|--------------------|
|------------------13|-12~-----(5)/11-10~-|
|--------------------|--------------------|
|--------------------|--------------------|

|----------------16b-|~(16)---------------|
|--15b(15)-13--------|-------16~--18---20b|
|--------------------|--------------------|
|--------------------|--------------------|
|--------------------|--------------------|
|--------------------|--------------------|

|--------------------|--------------------|
|~(20)--18~-------18-|(18)~---------------|
|------------20------|-------20--19~-(19)\|
|--------------------|--------------------|
|--------------------|--------------------|
|--------------------|--------------------|


|--------------------|--------------------|
|----7b(7)~-------9b-|-(9)----------------|
|-5------------8-----|------8----10---10b-|
|--------------------|--------------------|
|--------------------|--------------------|
|--------------------|--------------------|

|--------------------|--------------------|
|--------------------|--------------------|
|-----------/12b(12)-|--------------------|
|------------------13|-12~-----(5)/11-10~-|
|--------------------|--------------------|
|--------------------|--------------------|

|--------------------|--------------------|
|--15b(15)-13----21b-|~(21)---20--18---20b|
|--------------------|--------------------|
|--------------------|--------------------|
|--------------------|--------------------|
|--------------------|--------------------|

|--------------------|-----------------|------------------18~-----(18)\|
|~(20)--18~----------|--------------18-|19~----------------------------|
|------------20---19~|-----------19----|-------------------------------|
|--------------------|--------20-------|-------------------------------|
|--------------------|-----------------|-------------------------------|
|--------------------|-----------------|-------------------------------|


(14:16)

|--------------------|--------------------|
|---10b(10)~-----12b-|(12)----------------|
|-8------------11----|------11---13---13b-|
|--------------------|--------------------|
|--------------------|--------------------|
|--------------------|--------------------|

|--------------------|--------------------|
|--------------------|--------------------|
|-(13b)~----/15b(15)-|--------------------|
|------------------16|-15~-----(8)/14-13~-|
|--------------------|--------------------|
|--------------------|--------------------|

|----------------19b-|~(19)-------16---18b|
|--18b(18)-16--------|-------19~----------|
|--------------------|--------------------|
|--------------------|--------------------|
|--------------------|--------------------|
|--------------------|--------------------|

|~(18)-16~--16h18p16--16----|----14p13-14p13-------------|
|-------------------19---19b|~(19)----------14-----------|
|---------------------------|-----------------13\11p10---|
|---------------------------|-------------------------11-|
|---------------------------|----------------------------|
|---------------------------|----------------------------|


|---------------------|------------------------|
|----10b(10)~-----/14-|(14)~\12----------------|
|--------------11-----|----------11---13---13b-|
|-13~-----------------|------------------------|
|---------------------|------------------------|
|---------------------|------------------------|

|--------------------|--------------------|
|--------------------|--------------------|
|~(13b)-----/15b(15)-|--------------------|
|------------------16|-15~-----(8)/14-13~-|
|--------------------|--------------------|
|--------------------|--------------------|

|----------------19b-|~(19)--18~--16---18b|
|--18b(18)-16--------|--------------------|
|--------------------|--------------------|
|--------------------|--------------------|
|--------------------|--------------------|
|--------------------|--------------------|

|~(18)--16-----------|
|--------------------|
|--------------------|
|--------------------|
|--------------------|
|--------------------| Fade out...
Tap to rate this tab
 
# A B C D E F G H I J K L M N O P Q R S T U V W X Y Z