Dream Theater - On The Backs Of Angels tab

Artist: Dream Theater
Song: On The Backs of Angels
Album: A Dramatic Turn of Events
Tuning: E standard ( E A D G B E )
Tabbed by drawnacrol


|----------------------------------------------------------------------|
|----------------------------------------------------------------------|
|------11---12/16~~----------16-------14-------------------------------|
|--9--------------------------------------17--16h17p16-----------16~~--|
|-------------------------14------14---------------------14--17--------|
|----------------------------------------------------------------------|

|----------------------------------------------------------------------|
|------------------------14--15--17~~----15-14-12----------------------|
|------15~~---15h16h18----------------------------15-14------14--16----|
|--14----------------------------------------------------14------------|
|----------------------------------------------------------------------|
|----------------------------------------------------------------------|

|------------------------------------------------------------------17--|
|------------------17~-----------------------------17-22----17-22------|
|--16/17--14--17----------------17-21-17----17-21--------19------------|
|-------------------------17-19----------19----------------------------|
|----------------------------------------------------------------------|
|----------------------------------------------------------------------|

|--20--19~~~---20--17--------------------------------------------------|
|----------------------20b22~~\----------------------------------------|
|----------------------------------------------------------------14-16-|
|----------------------------------------------14-17-16-14-16-17-------|
|-------------------------------------14-15-17-------------------------|
|----------------------------------15----------------------------------|

|------------15--14-----------15--14--------------14-----------19--17--|
|-----15-17----------17-------------------17----------17---------------|
|--17--------------------16-----------16------------------16-----------|
|--------------------------------------------17------------------------|
|----------------------------------------------------------------------|
|----------------------------------------------------------------------|

|----------------------------------------------------------------------|
|------20------19b20r19b20r19~---14-15-17b18~~-------------------------|
|--16------16------------------------------------15-16-18--------------|
|-----------------------------------------------------------14-16-17---|
|----------------------------------------------------------------------|
|----------------------------------------------------------------------|

|------------------------------12-15p12----------------------------12--|
|---------------------------14----------13----------------------13-----|
|---------------------12-15----------------12----------------12--------|
|-----------13-14-16--------------------------14----------14-----------|
|--13-14-16--------------------------------------15-12h15--------------|
|----------------------------------------------------------------------|

|--15p12---------19p15----------------------------15-19p15-------------|
|--------13------------17----------------------17----------17----------|
|-----------12------------16----------------16----------------16-------|
|----------------------------17----------17----------------------------|
|-------------------------------19-15h19-------------------------------|
|----------------------------------------------------------------------|

|-17-19-17-------------------------------------------------------------|
|----------20-19-17-19-20----------------------------------------------|
|-------------------------16-17-19-------------------------------------|
|----------------------------------19-17-16-14-16-17-------------------|
|----------------------------------------------------14-15-17-14-15-14-|
|----------------------------------------------------------------------|

|----------------------------------------------------------------------|
|----------------------------------------------------------------------|
|-------------------------------------14-16-17-16-14-------------------|
|----------------------------14-16-17----------------17-16-15~~~~~-----|
|----------12-14-15-14-15-17-------------------------------------------|
|-12-14-15-------------------------------------------------------------|

|-----------------------------------13p12------------------------------|
|------------------------------------------13------------15------------|
|-12----14-------------------------------------12------------12--14----|
|--------------15--12------12~---------------------14------------------|
|----------------------14----------------------------------------------|
|----------------------------------------------------------------------|

|----------------------------------------------------------------------|
|--12b13r12------------------------------------------------------------|
|------------14----10-9-10~~------9--7---------------------------------|
|---------------------------------------10--9--7-----------------------|
|-------------------------------------------------10--8--7-------------|
|------------------------------------------------------------10--------|

|----------------------------------------------------------------------|
|----------------------------------------------------------------------|
|------------------10--9--7--------------------------------------------|
|----------------------------10--9--6--7--9--7~~~~~--------------------|
|--------2--5----------------------------------------------------------|
|--1--4----------------------------------------------------------------|
Tap to rate this tab
 
# A B C D E F G H I J K L M N O P Q R S T U V W X Y Z