Song name
# A B C D E F G H I J K L M N O P Q R S T U V W X Y Z

Dream Theater - Lost Not Forgotten tab

Intro
(0:48-1:47)

---------------------------------------------------|
---------------------------------------------------|
-7-11-11--14-15-14-12--14-15-11-8-7--7-8-7-5----8--|
----------------------------------------------6----|
-5-9--9---12-13-12-10--12-13-9--6-5--5-6-5-3----6--|
----------------------------------------------4----|

---------------------------------------------------|
---------------------------------------------------|
-7-11-11--12-15-18-18--15-14-11/14------99---88----|
------------------------------------7-8----6-------|
-5--9-9---10-13-16-16--13-12--9/12------77---66----|
------------------------------------5-6----4-------|
Tap to rate this tab
# A B C D E F G H I J K L M N O P Q R S T U V W X Y Z