Song name
# A B C D E F G H I J K L M N O P Q R S T U V W X Y Z

Dream Theater - On The Backs Of Angels tab

Oct 06/2011 Thursday

On The Backs Of Angels by Dream Theater Intro
Tab by: GFroggy

Okay... so this is my first guitar tab :o....
I love this intro and since i never saw one posted i decided to make one xD
it sucks but whatever :P
ENJOYY!!

Tuning: Starndard

e|--------------0-------------------0--------|
B|-----0-----------------0-------------------|
G|--------11-12----12-11------11-12----------|
D|-------------------------10----------------|
A|-------------------------------------------|
E|---0---------------------------------------|

e|--------------0------------------------0----------|
B|-----0-----------------0------0------0------------|
G|--------11-12----12-11------0------0--------------|
D|-------------------------12-----11-------12-10-9--|
A|--------------------------------------------------|
E|---0----------------------------------------------|

e|--------------------------------|
B|--------0-----------------0-----|
G|-----11----------------10-------|
D|---8----------------10----------|
A|-----------9---10-8-------------|
E|--------------------------------|



e|--------------0-------------------0--------|
B|-----0-----------------0-------------------|
G|--------11-12----12-11------11-12----------|
D|-------------------------10----------------|
A|-------------------------------------------|
E|---0---------------------------------------|

e|--------------0------------------------------|
B|-----0-----------------0-------0-----0-------|
G|--------11-12----12-11-------0-----0---------|
D|---------------------------------------------|
A|--------------------------10-----9-----8-7---|
E|---0-----------------------------------------|

e|--------------------------------|
B|-------0------------------------|
G|--------------------------------|
D|-----7--------------5-----------|
A|---6--------------7-------------|
E|----------7---8-6------2---3-1--|

do this 2 times lol.....
Thats it!! Enjoy xD!!!
Tap to rate this tab
# A B C D E F G H I J K L M N O P Q R S T U V W X Y Z