Song name
# A B C D E F G H I J K L M N O P Q R S T U V W X Y Z

Dream Theater - Glass Prison tab

Glass Prison solo (appegios below)
This is not my tab! 

(9:58) guitar solo 1 (included separately below)
|--------------------------------|--------------------------------|
|--------------------------------|--------------------------------|
|7---9---7-------7---9---7-------|7---9---7-------7-9-^-r-7-------|
|--9---9---9-7-9---9---9---9-7-9-|--9---9---9-7-9-----------9-7-9-|
|--------------------------------|--------------------------------|
|--------------------------------|--------------------------------|
|--------------------------------|--------------------------------|


|--------------------------------|--------------------------------|
|--------------------------------|--------------------------------|
|7---9---7-------7---9---7-------|7---7---7-------7-9-7-----------|
|--9---9---9-7-9---9---9---9-7-9-|--9---9---9-7-9-------9-7---7-9-|
|--------------------------------|--------------------------9-----|
|--------------------------------|--------------------------------|
|--------------------------------|--------------------------------|


|--------------------------------|--------------------------------|
|--------------------------------|--------------------------------|
|7---9---7-------7---9---7-------|7---9---7-------7-9-^-r-7-------|
|--9---9---9-7-9---9---9---9-7-9-|--9---9---9-7-9-----------9-7-9-|
|--------------------------------|--------------------------------|
|--------------------------------|--------------------------------|
|--------------------------------|--------------------------------|


|--------------------------------|--------------------------------|
|--------------------------------|--------------------------------|
|7---9---7-------7---9---7-------|7---9---7-------7-9-7-----------|
|--9---9---9-7-9---9---9---9-7-9-|--9---9---9-7-9-------9-7-------|
|--------------------------------|--------------------------9-5-7-|
|--------------------------------|--------------------------------|
|--------------------------------|--------------------------------|


 (9:58) solo 1 (gtr 3 w/ wah)
|---------------------|-----------------|----------------------------10----|
|------release slowly-|-----------------|9^----------9^--------------10----|
|--14-/---------------|\7---------------|9^--9-7-----9^--9-7-----9^-----9^^|
|----/----------------|-------------9-7-|--------9-7---------9-7-----------|
|-!-/-----------------|-----------------|----------------------------------|
|-!/------------------|-----------------|----------------------------------|
|-pre dive w/ bar-----|-----------------|----------------------------------|


|--------------------------------|-------------------|-release---------------|
|---7----------------------------|10^^---------12^^^-|(12)------10-----------|
|(9)--9^^r-7---------------------|-------------------|-----------------------|
|------------9-7-----------------|-------------------|-----------------------|
|----------------9-8-7\5---------|-------------------|-----------------------|
|------------------------7-------|-------------------|-----------------------|
|--------------------------------|-------------------|-----------------------|

 ___3__      _______6______ _______6______      ___3__
|7---------7---------7---------7-----------------------|------------------------|
|--10-7------10-7------10-7------10-7----7-10-7--------|-tr---------dive w/ bar-|
|-------10--------10--------10--------10--------10-7---|7(9)--------7------\----|
|----------------------------------------------------9-|--------------------\---|
|------------------------------------------------------|---------------------\--|
|------------------------------------------------------|------------------------|
|------------------------------------------------------|------------------------|


 (10:12) keyboard solo 1
|--------------------------------|--------------------------------|
|--------------------------------|--------------------------------|
|--------------------------------|--------------------------------|
|5---7---5-------5---7---5-------|5---7---5-------5-7-^-r-5-------|
|--7---7---7-5-7---7---7---7-5-7-|--7---7---7-5-7-----------7-5-7-|
|--------------------------------|--------------------------------|
|--------------------------------|--------------------------------|


|--------------------------------|--------------------------------|
|--------------------------------|--------------------------------|
|--------------------------------|--------------------------------|
|5---7---5-------5---7---5-------|5---7---5-------5-7-5-----------|
|--7---7---7-5-7---7---7---7-5-7-|--7---7---7-5-7-------7-5---5-7-|
|--------------------------------|--------------------------7-----|
|--------------------------------|--------------------------------|


|--------------------------------|--------------------------------|
|--------------------------------|--------------------------------|
|--------------------------------|--------------------------------|
|5---7---5-------5---7---5-------|5---7---5-------5-7-^-r-5-------|
|--7---7---7-5-7---7---7---7-5-7-|--7---7---7-5-7-----------7-5-7-|
|--------------------------------|--------------------------------|
|--------------------------------|--------------------------------|


|--------------------------------|--------------------------------|
|--------------------------------|--------------------------------|
|--------------------------------|--------------------------------|
|5---7---5-------5---7---5-------|5---7---5-------5-7-5-------7-9-|
|--7---7---7-5-7---7---7---7-5-7-|--7---7---7-5-7-------7-5-------|
|--------------------------------|--------------------------7-----|
|--------------------------------|--------------------------------|

guitar solo 2: repeat riff from guitar solo 1 except for last bar:
|------------------------------------|
|------------------------------------|
|----7---9---7-------7-9-7-----------|
|7-9---9---9---9-7-9-------9-7-------|
|------------------------------9-7-9-|
|------------------------------------|
|------------------------------------|


 (10:25) solo 2
 ________6________     6      6     6       6     6     6     6
|---------19----------------------------|------------------------|
|17-19-20----20-19----//-----//----//---|--//----//----//----//--|
|---------------------------------------|------------------------|
|---------------------------------------|------------------------|
|---------------------------------------|------------------------|
|---------------------------------------|------------------------|
|---------------------------------------|------------------------|

 ________6________ ________6________ ________6________ ________6________
|------------------------------------------------------------------------|
|17-19-17-19-17-15-17-15-17-19-17-19-20-19-17-19-17-15-17-15-17-19-17-19-|
|------------------------------------------------------------------------|
|------------------------------------------------------------------------|
|------------------------------------------------------------------------|
|------------------------------------------------------------------------|
|------------------------------------------------------------------------|

 ________6________ ________6________ ________6________
|--------------------------------------------------------------------0---|
|20-19-17-19-17-19-20-19-20-22-22-19-19-20-20-20-22-20-24\---------------|
|------------------------------------------------------------------------|
|------------------------------------------------------------------------|
|------------------------------------------------------------------------|
|------------------------------------------------------------------------|
|------------------------------------------------------------------------|


|---10-14-10----14----10-14-10----14----10-13-10-|
|12----------12----12----------12----12----------|
|------------------------------------------------|
|------------------------------------------------|
|------------------------------------------------|
|------------------------------------------------|
|------------------------------------------------|


|---10-14-10----14----10-14-10----14----10-15-10-|
|12----------12----12----------12----12----------|
|------------------------------------------------|
|------------------------------------------------|
|------------------------------------------------|
|------------------------------------------------|
|------------------------------------------------|


|---10-14-10----14----10-17-14----18-15----19-16-|
|12----------12----12----------15-------16-------|
|------------------------------------------------|
|------------------------------------------------|
|------------------------------------------------|
|------------------------------------------------|
|------------------------------------------------|

                   ____3___ ________6________
|---17-21-17----19-22-19----------21-24-21------------|
|19----------19----------20----22----------22-24\-----|
|---------------------------21------------------------|
|-----------------------------------------------------|
|-----------------------------------------------------|
|-----------------------------------------------------|
|-----------------------------------------------------|



 (10:38) keyboard solo 2
|--------------------------------|--------------------------------|
|--------------------------------|--------------------------------|
|--------------------------------|--------------------------------|
|7---9---7-------7---9---7-------|7---9---7-------7-9-^-r-7-------|
|--9---9---9-7-9---9---9---9-7-9-|--9---9---9-7-9-----------9-7-9-|
|--------------------------------|--------------------------------|
|--------------------------------|--------------------------------|


|--------------------------------|--------------------------------|
|--------------------------------|--------------------------------|
|--------------------------------|--------------------------------|
|7---9---7-------7---9---7-------|7---9---7-------7-9-7-----------|
|--9---9---9-7-9---9---9---9-7-9-|--9---9---9-7-9-------9-7---7-9-|
|--------------------------------|--------------------------9-----|
|--------------------------------|--------------------------------|



|--------------------------------|--------------------------------|
|--------------------------------|--------------------------------|
|--------------------------------|--------------------------------|
|7---9---7-------7---9---7-------|7---9---7-------7-9-^-r-7-------|
|--9---9---9-7-9---9---9---9-7-9-|--9---9---9-7-9-----------9-7-9-|
|--------------------------------|--------------------------------|
|--------------------------------|--------------------------------|



|--------------------------------|--------------------------------|
|--------------------------------|--------------------------------|
|--------------------------------|--------------------------------|
|7---9---7-------7---9---7-------|7---9---7-------7-9-7-------7-9-|
|--9---9---9-7-9---9---9---9-7-9-|--9---9---9-7-9-------9-7-------|
|--------------------------------|--------------------------9-----|
|--------------------------------|--------------------------------|


 (10:52) key/guitar unison: see below (end 8vb rhythm guitar doubling)
|--------------------------------|--------------------------------|
|gtrs 1 & 2 ---------------------|--------------------------------|
|--------------------------------|--------------------------------|
|--------------------------------|--------------------------------|
|5---7---5-------5---7---5-------|5---7---5-------5-7-^-r-5-------|
|--7---7---7-5-7---7---7---7-5-7-|--7---7---7-5-7-----------7-5-7-|
|--------------------------------|--------------------------------|


|--------------------------------|--------------------------------|
|--------------------------------|--------------------------------|
|--------------------------------|--------------------------------|
|--------------------------------|--------------------------------|
|5---7---5-------5---7---5-------|5---7---5-------5-7-5-----------|
|--7---7---7-5-7---7---7---7-5-7-|--7---7---7-5-7-------7-5---5-7-|
|--------------------------------|--------------------------7-----|


|--------------------------------|--------------------------------|
|--------------------------------|--------------------------------|
|--------------------------------|--------------------------------|
|--------------------------------|--------------------------------|
|5---7---5-------5---7---5-------|5---7---5-------5-7-^-r-5-------|
|--7---7---7-5-7---7---7---7-5-7-|--7---7---7-5-7-----------7-5-7-|
|--------------------------------|--------------------------------|


|--------------------------------|--------------------------------|
|--------------------------------|--------------------------------|
|--------------------------------|--------------------------------|
|--------------------------------|--------------------------------|
|5---7---5-------5---7---5-------|5---7---5-------5-7-5-----------|
|--7---7---7-5-7---7---7---7-5-7-|--7---7---7-5-7-------7-5---5-6-|
|--------------------------------|--------------------------7-----|


 (10:52) unison w/ keyboard
|21-22-19-22-17-22----19-17-19-14-19----19-------|
|------------------19----------------17----15-19-|
|------------------------------------------------|
|------------------------------------------------|
|------------------------------------------------|
|------------------------------------------------|
|------------------------------------------------|

                         ________6________ ________6________
|------------------------------------------------------------|
|17-15-14-17-15-14----14-15-14----14-------------------------|
|------------------16----------16----16-14-16-14----14-------|
|------------------------------------------------16----16-14-|
|------------------------------------------------------------|
|------------------------------------------------------------|
|------------------------------------------------------------|


|------------12-10-12-14-------------------|
|------------------------------------------|
|------------------------------------------|
|14-12-14-16-------------11^---r---9----\--|
|------------------------------------------|
|------------------------------------------|
|------------------------------------------|

 ________6_______ ________6______ _______6_______
|12-10-------------------------------------------------------|
|------12-10------12-10--------------------------------------|
|------------11-9-------11-9---------------------------------|
|----------------------------12-9-12-9-----------------------|
|--------------------------------------10-9------------------|
|-------------------------------------------12-10------12-14-|
|-------------------------------------------------12---------|


|------------------------------------------------|
|------------------------------------------------|
|------------------------14----16----14----------|
|------------------14-16----16----16----16-------|
|12----14----12----------------------------------|
|---14----14----14-------------------------12-14-|
|------------------------------------------------|


|------------------------------------------------|
|------------------------------------------------|
|------------------------14-16-^--r--14----------|
|------------------14-16----------------16-------|
|12----14----12----------------------------------|
|---14----14----14-------------------------12-14-|
|------------------------------------------------|


|------------------------------------------------|
|------------------------------------------17-19-|
|------------------------14----16----14----------|
|------------------14-16----16----16----16-------|
|12----14----12----------------------------------|
|---14----14----14-------------------------------|
|------------------------------------------------|


|17----19----17----------22-24-^--r--22----------|
|---19----19----19-22-24----------------24-22-23-|
|------------------------------------------------|
|------------------------------------------------|
|------------------------------------------------|
|------------------------------------------------|
|------------------------------------------------|


 (11:05)
|(gtr 3 out)---------------------|--------------------------------|
|24\-----------------------------|--------------------------------|
|7---9---7-------7---9---7-------|7---9---7-------7-9-7-9-7-------|
|--9---9---9-7-9---9---9---9-7-9-|--9---9---9-7-9-----------9-7-9-|
|(gtr 4: clean w/ palm mute)-----|--------------------------------|
|7-------------------------------|--------------------------------|
|(gtrs 1 & 2)--------------------|--------------------------------|


|--------------------------------|--------------------------------|
|--------------------------------|--------------------------------|
|7---9---7-------7---9---7-------|7---9---7-------7-9-7---------7-|
|--9---9---9-7-9---9---9---9-7-9-|--9---9---9-7-9-------9-7-5-7---|
|--------------------------------|--------------------------------|
|--------------------------------|--------------------------------|
|--------------------------------|--------------------------------|
Tap to rate this tab
 
# A B C D E F G H I J K L M N O P Q R S T U V W X Y Z