Song name
# A B C D E F G H I J K L M N O P Q R S T U V W X Y Z

Dream Theater - This Is The Life tab

Dream Theater  This Is The Life (Intro)
Standard Tuning

|-------------------|-------------------|-------------------|-----------------|
|-------0-----------|-------0-----------|-------0-----------|--------------0--|
|*-----------2------|------------2------|------------2------|-----2-----------|
|*--------5---------|---------5---------|---------5---------|---------5-------|
|-------------------|-------------------|-------------------|-----------------|
|---0-------------0-|-----------------0-|-----------------3-|-----------------|

|-------------------|-------------------|-------------------|-----------------|
|-------0-----------|-------0-----------|--------0----------|-----------------|
|*-----------2------|------------2------|------------2------|-----2-----------|
|*--------5---------|---------5---------|---------5---------|---------5-------|
|-------------------|-------------------|---4-------------4-|-----------------|
|---0-------------0-|-------------------|-------------------|--------------3--|

|-------------------|-------------------|-------------------|-----------------|
|-------0-----------|-------0-----------|--------0----------|--------------0--|
|*-----------2------|------------2------|------------2------|------------2----|
|*--------5---------|---------5---------|---------5---------|-----4-h-5-------|
|-------------------|-------------------|-------------------|-----------------|
|---0-------------0-|-------------------|---0-------------2-|-----------------|
Tap to rate this tab
 
# A B C D E F G H I J K L M N O P Q R S T U V W X Y Z