Song name
# A B C D E F G H I J K L M N O P Q R S T U V W X Y Z

Dream Theater - Wither tab

                         Wither SOLO by John Petrucci                           


                                                                   Dream Theater
Track 1 (Capo 1)



     H        Q.      S S    H.            E  E     H          H         
E||-----------------------|----------------5--7--|--7br-----------------|
B||-----------5-----------|----------------------|-------------5--------|
G||--5--------7b------7-5-|--7~------------------|----------------------|
D||--5--------------------|----------------------|----------------------|
A||-----------------------|----------------------|----------------------|
E||-----------------------|----------------------|----------------------|


                                     |--3--|  |--3--|  |--3--|   
  H         S S S S S S S S    Q     E  E  E  E  E  E  E  E  E   
----------------------------|--------------------------------5--|
--8b--------------------5-6-|--8~-------------------5--6--8-----|
------------------4-5-7-----|--------------4--5--7--------------|
------------3-5-7-----------|--------5--7-----------------------|
----------------------------|-----------------------------------|
----------------------------|-----------------------------------|


                                         T T  T T       T T  T T       T  
                                   |--3--| |--3-| |--3--| |--3-| |--3--|  
  H         Q.      S S    Q.      S  S  S S  S S S  S  S S  S S S  S  S  
--5b--------8b------8-7-|--8~------0h-5-12-8-12-8-0h-5-12-8-12-8-0h-5-13-|
------------------------|------------------------------------------------|
------------------------|------------------------------------------------|
------------------------|------------------------------------------------|
------------------------|------------------------------------------------|
------------------------|------------------------------------------------|


  T  T T       T T  T T       T T  T T       T T  T T     
  |--3-| |--3--| |--3-| |--3--| |--3-| |--3--| |--3-|     
  S  S S S  S  S S  S S S  S  S S  S S S  S  S S  S S E   
--8-13-8-0h-5-13-8-13-8-0h-5-15-8-15-8-0h-5-15-8-15-8----|
---------------------------------------------------------|
---------------------------------------------------------|
---------------------------------------------------------|
---------------------------------------------------------|
---------------------------------------------------------|


   W                                                                 
   H.           E  E                                                 
--15------------L-----|-----|-------------------|-------------------|
----------------------|-----|-------------------|-------------------|
----------------------|-----|-------------------|-------------------|
----------------------|-----|-------------------|-------------------|
----------------------|-----|-------------------|-------------------|
----------------------|-----|-------------------|-------------------|


-------------------||
-------------------||
-------------------||
-------------------||
-------------------||
-------------------||




Duration Legend
---------------
W - whole
H - half
Q - quarter
E - 8th
S - 16th
Tap to rate this tab
# A B C D E F G H I J K L M N O P Q R S T U V W X Y Z