Song name
# A B C D E F G H I J K L M N O P Q R S T U V W X Y Z

Dream Theater - The Looking Glass tab

Dream Theater
The Looking Glass


First Part
               P.M---
e|-------------------------------------------------------------------------|
B|-------------------------------------------------------------------------|
G|---------------------------------2---------------------------------------|
D|---------------------4-4-4-4--2--2---------------------------------------|
A|-------7-6-4---------2-2-2-2--2--0---------------------------------------|
E|---0-5--------0-2-4-----------0------------------------------------------|

Second Part

   P.M-       P.M-     P.M-   P.M-
e|-------------------------------------------------------------------------|
B|-------------------------------------------------------------------------|
G|-------9-8---------6-------8-----9~~-------------------------------------|
D|-----7-----7-----7---7-----7-----7~~-------------------------------------|
A|---0---------0-0-------0-0---0-0-----------------------------------------|
E|-------------------------------------------------------------------------|

Third part

e|-------------------------------------------------------------------------|
B|-------------------------------------------------------------------------|
G|-----------------------------------2-------------------------------------|
D|-----------------------9-9-9-9--9--2-------------------------------------|
A|-------12-11-9---------6-6-6-7--9--0-------------------------------------|
E|---0-9----------0-7-9-----------7----------------------------------------|

Fourth Part

e|-------------------------------------------------------------------------|
B|-------------------------------------------------------------------------|
G|------9-8-------11-9-------13\9------------------------------------------|
D|----7-----7----------9-----11\7------------------------------------------|
A|--0---------0-0--------0-0-----------------------------------------------|
E|-------------------------------------------------------------------------|

Fifth part

(Repeat the first part)

               P.M---
e|-------------------------------------------------------------------------|
B|-------------------------------------------------------------------------|
G|---------------------------------2---------------------------------------|
D|---------------------4-4-4-4--2--2---------------------------------------|
A|-------7-6-4---------2-2-2-2--2--0---------------------------------------|
E|---0-5--------0-2-4-----------0------------------------------------------|

Sixth Part

(Repeat the second part)

   P.M-       P.M-     P.M-   P.M-
e|-------------------------------------------------------------------------|
B|-------------------------------------------------------------------------|
G|-------9-8---------6-------8-----9~~-------------------------------------|
D|-----7-----7-----7---7-----7-----7~~-------------------------------------|
A|---0---------0-0-------0-0---0-0-----------------------------------------|
E|-------------------------------------------------------------------------|

Seventh Part

(Repeat the Third Part)

e|-------------------------------------------------------------------------|
B|-------------------------------------------------------------------------|
G|-----------------------------------2-------------------------------------|
D|-----------------------9-9-9-9--9--2-------------------------------------|
A|-------12-11-9---------6-6-6-7--9--0-------------------------------------|
E|---0-9----------0-7-9-----------7----------------------------------------|

eighth part

(Repeat the forth part and add one more chord)

e|-------------------------------------------------------------------------|
B|-------------------------------------------------------------------------|
G|------9-8-------11-9-------13\9--9-9---4---------------------------------|
D|----7-----7----------9-----11\7--7-7---2---------------------------------|
A|--0---------0-0--------0-0-------------0---------------------------------|
E|-------------------------------------------------------------------------|



e|----------------------------------------------------------------------------|
B|----------------------------------------------------------------------------|
G|----9------9-----8----------------------------------------------------------|
D|----6------6-----6----------------------------------------------------------|
A|----4-4-4--4-4-4-4----------------------------------------------------------|
E|----------------------------------------------------------------------------|
Tap to rate this tab
# A B C D E F G H I J K L M N O P Q R S T U V W X Y Z