Song name
# A B C D E F G H I J K L M N O P Q R S T U V W X Y Z

Dream Theater - The Enemy Inside tab

 By: John Petrucci of Dream Theater
Transcribed by: Miguel D. Burney
This is only part of the solo to "The Enemy Inside." I couldn't figure out the rest of 
this by ear. But this is pretty accurate. Feel free to add more to it if you wish. I 
ended at the beginning pedal point open string section.

E------12--14--15--12~-----19-20-19-15--------------|
B--/12---------------------------------17-15--------|
G--------------------------------------------17-16--|
D---------------------------------------------------|
A---------------------------------------------------|
E---------------------------------------------------|

E------------10-12-13-14-15-19----------------------|
B---------------------------------------------------|
G--11-12-14---------------------14~-----------------|
D---------------------------------------------------|
A---------------------------------------------------|
E---------------------------------------------------|

E-14-15-14------------------------------------------|
B----------15---------------------------------------|
G-------------16-14-------------------14-16---------|
D-------------------17-16-------16-17---------------|
A-------------------------14-17---------------------|
E---------------------------------------------------|

E---------------------------------------------------|
B---------------13p12-------------------------------|
G-17p16p0-14p12-------------------------------------|
D---------------------------------------------------|
A---------------------------------------------------|
E---------------------------------------------------|
Tap to rate this tab
# A B C D E F G H I J K L M N O P Q R S T U V W X Y Z