Song name
# A B C D E F G H I J K L M N O P Q R S T U V W X Y Z

Dream Theater - On The Backs Of Angels tab

Legend" ~ Hold out note. W= Whole Step Bend, V=Vibrato

E--------------------------------------------------------------------------|
B----------------------------------------------------------------14-15-17~-|
G----11-12/16~----16----14------------------------15~-15-16-18~------------|
D--9-----------------------17--------------16--14--------------------------|
A--------------14----14--------------14-17---------------------------------|
E------------------------------14-15---------------------------------------|

E------------------------------------|
B-15-14-12------------------------17-|
G----------15-14----14-16-17-14-17---|
D----------------14------------------|
A------------------------------------|
E------------------------------------|

E------------------------------------------17-20-19-20-17-----|
B------------------------17-21-17----17-21----------------20--|w
G-------17-21-17---17-21----------19--------------------------|
D-17-19---------19--------------------------------------------|
A-------------------------------------------------------------|
E-------------------------------------------------------------|

E----------------------------------------------15-14-------|
B----------------------------------------15-17-------17----|
G-------------------------------14-16-17----------------16-|
D-------------14-17-16-14-16-17----------------------------|
A----14-15-17----------------------------------------------|
E-15-------------------------------------------------------|

E-15-14-----------14-----19-17-------------------------|
B----------17-------17------------20----19v--14-15-17--|v
G-------16----16------16-------16----16----------------|
D------------------------------------------------------|
A------------------------------------------------------|
E------------------------------------------------------|

E-----------------------------------------------12h15p12----------|
B-------------------------------------------14----------13--------|
G-15-16-18----------------------------12-15----------------12-----|
D----------14-15-17----------13-14-16------------------------14---|
A-------------------13-14-16-----------------------------------15-|
E-----------------------------------------------------------------|

E----------------12h15p12-----------19p15---------------|
B-------------13----------13--------------17------------|
G----------12----------------12--------------16---------|
D-------14--------------------------------------17------|
A-12h15--------------------------------------------19---|
E-------------------------------------------------------|

E---------------15h19p15-------|
B------------17----------17----|
G---------16----------------16-|
D-------17---------------------|
A-15h19------------------------|
E------------------------------|

YOU READY FOR THIS?....

E-17-19-17--------------------------------------------------------|
B----------20-19-17-17-19-20--------------------------------------|
G----------------------------16-17-19-16-17-16--------------------|
D-----------------------------------------------19-17-16-14-16-17-|
A-----------------------------------------------------------------|
E-----------------------------------------------------------------|

E----------------------------------------------------------------|
B----------------------------------------------------------------|
G----------------------------------------------------------------|
D-------------------------------------------------------14-16-17-|
A-14-15-17-14-15-14-------------------12-14-15-14-15-17----------|
E-------------------17-15-14-12-14-15----------------------------|

E--------------------------|
B--------------------------|
G-14-16-17-16-14-----------|
D----------------17-16-15~-|
A--------------------------|
E--------------------------|

Have Fun!!
Tap to rate this tab
# A B C D E F G H I J K L M N O P Q R S T U V W X Y Z