Song name
# A B C D E F G H I J K L M N O P Q R S T U V W X Y Z

Dream Theater - Fatal Tragedy tab

Gtr I (E A D G B E) - 'Gtr1'
Gtr II (E A D G B E) - 'Gtr2'
Gtr III (E A D G B E) - 'Gtr3'
Gtr IV (E A D G B E) - 'Synth'


 Intro
  Slowly H=54
 2/2
  Gtr I
  Wx16
|---------||
|---------||
|---------||
|---------||
|---------||
|---------||


  Faster Q=66
  E5                 Em7b5          B      B/A          Em/G
 4/4                                                   2/4
  Gtr I
                     ~
  H.      a   +Q     H    E E E E   Q  E E E  E E E      H
|---------6b7-(6)--|-6------------|-------------------|--------||
|------------------|--------------|-4--4--------4-----|--5-----||
|-4----------------|--------------|-4----4----4---4---|--4-----||
|------------------|--------------|-4------4----------|--5-----||
|------------------|--------------|-------------------|--------||
|------------------|------xSxSxSx-|-------------------|--------||
|
| Gtr II
|                    ~                                   ~~~
| H.      a   +Q     H    E E E E   H      Q.     S S    H
|------------------|--------------|-------------------|--------||
|------------------|--------------|-------------------|--------||
|---------3b4-(3)--|-3------------|-4------4----------|--------||
|-2----------------|--------------|-4------4----------|--------||
|------------------|--------------|-2------0----------|--------||
|------------------|------xSxSxSx-|---------------3s5-|-[3]----||
|
| Gtr III
|                    ~                                   ~~~
| H.      a   +Q     H    E E E E   H      Q.     S S    H
|------------------|--------------|-------------------|--------||
|------------------|--------------|-------------------|--------||
|------------------|--------------|-------------------|--------||
|------------------|--------------|-------------------|--------||
|---------1b2-(1)--|-1------------|-2------0----------|--------||
|-0----------------|------xSxSxSx-|---------------3s5-|--3-----||


 Verse1
  Em
 4/4
  Gtr I
               W
|---------------------------|
|---------------------------|
|---------------------------|
|---------------------------|
|---------------------------|
|---------------------------|
|
| Gtrs II, III
| PM|             PM| ~
| S S E  e  E  E  S S E  E
|---------------------------|
|---------------------------|
|---------------------------|
|-----5--2------------------|
|-2-4-5--2---------------2--|
|-0-2-3--0--------0-2-3-----|


  Em7b5/Bb                       Em
          W                                   W
|------------------------------|--------------------------|
|------------------------------|--------------------------|
|------------------------------|--------------------------|
|------------------------------|--------------------------|
|------------------------------|--------------------------|
|------------------------------|--------------------------|
|
| ~~~~~~~~~~~~~~PM------|  ~~~   PM|             PM| ~
| H         +S  S S S S S  E     S S E  e  E  E  S S E  E
|------------------------------|--------------------------|
|------------------------------|--------------------------|
|------------------------------|--------------------------|
|-------------------2-5--------|-----5--2-----------------|
|-1---------(1)-1-4-----4------|-2-4-5--2---------------2-|
|-------------------------[3]--|-0-2-3--0--------0-2-3----|


  Em7b5/C#
  W
|-----------------------------|
|-----------------------------|
|-----------------------------|
|-----------------------------|
|-----------------------------|
|-----------------------------|
|
| ~~~~~~~~~~~~~PM------|  ~~~
| H        +S  S S S S S  E
|-----------------------------|
|-----------------------------|
|-----------------------------|
|------------------5-8--------|
|-4--------(4)-4-7-----7------|
|------------------------[6]--|


  B          B/A       Em/G         Em
 5/4                               4/4
  Q    E  E  E   E  E  E    Q       W
|---------------------------------|----------------------------|
|-4----4------------4-------5-----|----------------------------|
|-4-------4------4-----4----4-----|----------------------------|
|-4----------4--------------5-----|----------------------------|
|---------------------------------|----------------------------|
|---------------------------------|----------------------------|
|
|                           ~~~     PM|             PM| ~
| H          Q.        S S  Q       S S E  e  E  E  S S E  E
|---------------------------------|----------------------------|
|---------------------------------|----------------------------|
|-4----------4--------------------|----------------------------|
|-4----------4--------------------|-----5--2-------------------|
|-2----------0--------------------|-2-4-5--2---------------2---|
|----------------------3s5-[3]----|-0-2-3--0--------0-2-3------|


  Em7b5/B                              Em
  W                                    W
|------------------------------------|---------------------------|
|------------------------------------|---------------------------|
|------------------------------------|---------------------------|
|------------------------------------|---------------------------|
|------------------------------------|---------------------------|
|------------------------------------|---------------------------|
|
|                     PM------|  ~~~   PM|             PM| ~
| H            +S     S S S S S  E     S S E  e  E  E  S S E  E
|------------------------------------|---------------------------|
|------------------------------------|---------------------------|
|------------------------------------|---------------------------|
|-------------------------2-5--------|-----5--2------------------|
|-1tr2---------(1tr2)-1-4-----4------|-----5--2---------------2--|
|-------------------------------[3]--|-0-2-3--0--------0-2-3-----|


  Em7b5/C#
  W
|--------------------------------------|
|--------------------------------------|
|--------------------------------------|
|--------------------------------------|
|--------------------------------------|
|--------------------------------------|
|
|                      PM----------|
| H             +S     S S S T T S S S
|--------------------------------------|
|--------------------------------------|
|--------------------------------------|
|--------------------------5-8-8-------|
|-4tr5----------(4tr5)-4-7-------7-----|
|----------------------------------6-0-|


  B          B/A             Em/G         Em
  Q    E  E  E   E  E  E      H           Q     E  S    +S
|--------------------------|--------------------------------|
|-4----4------------4------|--5--------------------4b5==(4)r|
|-4-------4------4-----4---|--4-----------------------------|
|-4----------4-------------|--5-----------------------------|
|--------------------------|--------------------------------|
|--------------------------|--------------------------------|
|
| H          Q.        S S    Q.      S S Q.       S    +S
|--------------------------|--------------------------------|
|--------------------------|--------------------------------|
|--------------------------|-----------------------4b6==(4)r|
|--------------------------|--------------2-----------------|
|-2----------0-------------|----------4-5-2-----------------|
|----------------------3s5-|-[3]------2-3-0-----------------|


  B
           ~~~~~~~~~~~~~
  +S  S E  H        +E   S   +S
|--------------------------------|
|-(4)------7--------(7)--4b5r(4)-|
|-----4--------------------------|
|-------4------------------------|
|--------------------------------|
|--------------------------------|
|
|          ~~~~~~~~~~~~~
| +S  S E  H        +E   S   +S
|--------------------------------|
|--------------------------------|
|-(4)------8--------(8)--4b6r(4)-|
|-----4--------------------------|
|-------6------------------------|
|--------------------------------|


  F#m           E5          Eb5
  ~~~~~~~~~~~
  Q  Q  Q  Q    W           W
|-------------|-----------|-------------------|
|-2--4--5--7--|-----------|-------------------|
|-------------|-4---------|-3-----------------|
|-------------|-----------|-------------------|
|-------------|-----------|-------------------|
|-------------|-----------|-------------------|
|
| ~~~~~~~~~~~
| Q  Q  Q  Q    W           H.      +E    E
|-------------|-----------|-------------------|
|-------------|-5---------|-5-------(5)-------|
|-2--4--6--8--|-4---------|-3-------(3)-------|
|-------------|-2---------|-2-------(2)-------|
|-------------|-2---------|-2-------(2)-------|
|-------------|-0---------|-0-------(0)--12\--|


  E5                           Eb5
  Gtrs II, III
       PM           PM                              PM
  E.   S E  E  E  S S E  S S   E  E  E  E  E  E  E  S S
|----------------------------|--------------------------||
|--------5-----5------5--5-5-|-5-----5-----5-----5------||
|--------4--4-----4---4--4-4-|-3--3-----3--3--3---------||
|--------2------------2--2-2-|-2-----------2------------||
|----------------------------|--------------------------||
|-0----0------------0--------|----------------------0-1-||


 Chorus
  F#m         A            C#m           E/G#
          PM|        PM|               PM       PM|
  Q.      S S Q.     S S    Q     +E.  S Q.     S S
|------------------------|--------------------------|
|------------------------|--------------------------|
|------------------------|--------------------------|
|-4-----------7----------|-11----(11)---------------|
|-4-------4-6-7------7-9-|-11----(11)----7--------7-|
|-2-------2-4-5------5-7-|--9-----(9)--0-4------4-5-|


  B
  Q   +E.  S E.   S S S S S
|----------------------------|
|----------------------------|
|----------------------------|
|-9---(9)----9---------------|
|-9---(9)----9---/4-2-4------|
|-7---(7)--x-7----------4-0--|


  F#m      A        C#m        E/G#              N.C.        B5/F#
 15/8                                           4/4
       PM|      PM|          PM
  Q    S S Q    S S  Q     S S E.   E  S Q.      E  E  E  E  H
|----------------------------------------------|------------------||
|----------------------------------------------|------------------||
|----------------------------------------------|-------------4----||
|-4--------7--------11----11-------------7-----|-2--1--------4----||
|-4----4-6-7----7-9-11----11---7----7----7-----|-------2-----2----||
|-2----2-4-5----5-7--9-----9-0-4----4--0-5-----|----------4--2----||


 Interlude
  E=264
  B                           Em
 7/8               2/4       7/8               2/4
  Gtr II
                                                           ~~
        W              W          W              Q         Q
|-----------------|---------|-----------------|-14b14.5h==15--|
|-----------------|---------|-----------------|---------------|
|-----------------|---------|-----------------|---------------|
|-----------------|---------|-----------------|---------------|
|-----------------|---------|-----------------|---------------|
|-----------------|---------|-----------------|---------------|
|
| Gtr III           Gtr IV  Gtr III
|                                                          ~~
|       W            Q   Q        W              Q         Q
|-----------------|--8---7--|-----------------|---------------|
|-----------------|-10---9--|-----------------|-10b10.5h==12--|
|-----------------|---------|-----------------|---------------|
|-----------------|-10---9--|-----------------|---------------|
|-----------------|---------|-----------------|---------------|
|-----------------|---------|-----------------|---------------|
|
| Gtr I
| E E E E +E  E E      W      E E E E +E  E E           W
|-----------------|---------|-----------------|---------------|
|-----------------|---------|-----------------|---------------|
|-----------------|---------|-----------------|---------------|
|-----------------|---------|-------------5-9-|---------------|
|-------------6-9-|---------|-6-7-9-7-(7)-----|---------------|
|-5-7-8-7-(7)-----|---------|-----------------|---------------|


  B                           Em
 7/8               2/4       7/8               2/4
        W              W          W              Q        Q
|-----------------|---------|-----------------|-14tr15---12--|
|-----------------|---------|-----------------|--------------|
|-----------------|---------|-----------------|--------------|
|-----------------|---------|-----------------|--------------|
|-----------------|---------|-----------------|--------------|
|-----------------|---------|-----------------|--------------|
|
|                 Gtr IV    Gtr III
|       W            Q   Q        W              Q        Q
|-----------------|--8---7--|-----------------|--------------|
|-----------------|-10---9--|-----------------|-10tr12----8--|
|-----------------|---------|-----------------|--------------|
|-----------------|-10---9--|-----------------|--------------|
|-----------------|---------|-----------------|--------------|
|-----------------|---------|-----------------|--------------|
|
| E E E E +E  E E      W      E E E E +E  E E          W
|-----------------|---------|-----------------|--------------|
|-----------------|---------|-----------------|--------------|
|-----------------|---------|-----------------|--------------|
|-----------------|---------|-------------5-9-|--------------|
|-------------6-9-|---------|-6-7-9-7-(7)-----|--------------|
|-5-7-8-7-(7)-----|---------|-----------------|--------------|


  Am        Em/G      B7/F#         E5
 9/8                               4/4
  Gtrs II, III
                      PM-----------------------------------|
  E  S S E  E  S S E  S S S S S S   S S E  E  E  E  S S E  E
|---------------------------------|----------------------------|
|---------------------------------|----------------------------|
|---------------------------------|----------------------------|
|-7---------5--2------------------|----------------------------|
|----7-----------2----------2-----|-2-2-2--2--------2-2-2--2---|
|------8-5---------3--2-3-5---3-2-|-0-0-0--0--------0-0-0--0---|


       PM--------------------------------------------|
  Q    S S E  S S E  S S E    S S E  E  E  E  S S E  E
|---------------------------|---------------------------|
|---------------------------|---------------------------|
|---------------------------|---------------------------|
|---------------------------|---------------------------|
|------2-2-2--2-2-2--2-2-2--|-2-2-2--2--------2-2-2--2--|
|------0-0-0--0-0-0--0-0-0--|-0-0-0--0--------0-0-0--0--|


       PM----------------|
  Q    S S E  S S E  S S E
|---------------------------||
|---------------------------||
|---------------------------||
|---------------------------||
|------2-2-2--2-2-2--2-2-2--||
|------0-0-0--0-0-0--0-0-0--||


   Verse2
    Em
    PM---------------------|         PM----------------|
    S S E  E  E  E  S S E  E    Q    S S E  S S E  S S E    4x
||----------------------------|-----------------------------||
||o---------------------------|----------------------------o||
||----------------------------|-----------------------------||
||----------------------------|-----------------------------||
||o-2-2-2--2--------2-2-2--2--|------2-2-2--2-2-2--2-2-2---o||
||--0-0-0--0--------0-0-0--0--|------0-0-0--0-0-0--0-0-0----||


    PM--|             PM-----|         PM----------------|
    S S E  Q    +E    S S E  E    Q    S S E  S S E  S S E    4x
||------------------------------|-----------------------------||
||o-----------------------------|----------------------------o||
||---------9----(9)\------------|-----------------------------||
||---------9----(9)\------------|-----------------------------||
||o-2-2-2--7----(7)\--2-2-2--2--|------2-2-2--2-2-2--2-2-2---o||
||--0-0-0-------------0-0-0--0--|------0-0-0--0-0-0--0-0-0----||


  B
  PM-----------------------------------------------|
  E  E  E  E  E  S S E  E    S S E  E  E  E  E  E  E
|--------------------------|--------------------------|
|--------------------------|--------------------------|
|--------------------------|--------------------------|
|-------------1------2--4--|-----2--1-----------------|
|-2--3--0--2-----2-2-------|-2-2-------2--3--2--0--2--|
|--------------------------|--------------------------|


  B/A
  PM----------------------------------------------------
  E  E  E  E  E  S S E  E     S S E  E  E  E  E  E  E
|--------------------------|---------------------------|
|--------------------------|---------------------------|
|--------------------0--2--|---------------------------|
|-------------1------------|------2--1-----------------|
|-0--3--0--2-----2-2-------|--2-2-------2--3--2--0--2--|
|--------------------------|---------------------------|


   B/G
 ----------------------------------------------------|
   E  E  E  E  E  S S E  E     S S E  E  E  E  E  E  E
|---------------------------|-----------------------------|
|---------------------------|-----------------------------|
|---------------------2--4--|-----------------------------|
|--------------1------------|------2--1-------------------|
|-----3--0--2-----2-2-------|--2-2-------2--3--2--0--2----|
|--3------------------------|-----------------------------|


  Em
  PM-------------------------
  S S E  E  E  E  E  S S E
|---------------------------|
|---------------------------|
|---------------------------|
|--------------------1-4-2--|
|-----------0--1--2---------|
|-0-0-2--3------------------|


                                   B
 ----------------------------------------------------------|
  E  S S S S S S S S S S S S S S   E  S S E  S S E  S S E  E
|--------------------------------|----------------------------|
|--------------------------------|----------------------------|
|--------------------------------|--------4------2------------|
|------------------2-------------|----------------------5--4--|
|----7-6-5-7-4-3-2---------7-----|-2--2-2----2-2----2-2-------|
|-0------------------6-5-3---5-3-|----------------------------|


  PM|                   PM-------------------------------
                  |-3-|
  S S E  E  E  E  S S S E  E    E  E  E  E  E  E  E  E
|-----------------------------|-------------------------|
|-----5--4--------------------|-------------------------|
|-----------4--5--4h5p4-------|-------------------------|
|-----------------------7--5--|-4--6--7-----------------|
|-2-2-------------------------|----------4--3-----2--0--|
|-----------------------------|----------------2--------|


                            Half Time Q=66
                            Em
 ----------------------|
  E  E  E  E  E  E  E  E    W
|-------------------------|------|
|-------------------------|------|
|-------------------------|------|
|-------------------------|-2----|
|----------4--3--2--------|-2----|
|-2--0--2-----------2--3--|-0----|


  Em7b5                  Em
                                     PM------|    PM--|
  H        E  E  E  E    E.   S Q    T T S S S E  T T S
|----------------------|--------------------------------|
|-5--------------------|--------5--------------5--------|
|-3--------------------|--------4--------------4--------|
|-2--------------------|------x-2--------------2--------|
|----------------------|--------------------------------|
|-0--------xS=xS=xS=x--|-0-----------0-0-0-0-0----0-0-0-|


  Em7b5
              PM----|       PM|
  E.   S Q    T T S S S E   S S
|----------------------------------||
|--------5--------------5----------||
|--------3--------------3----------||
|------x-2--------------2----------||
|----------------------------------||
|-0-----------0-0-0-0-0-----0-1----||


 Chorus
  Dbl. Time Q=132
  F#m           A             C#m
          PM|           PM|                 PM
  H.      E E   H.      E E    H.       +E  E
|-------------|-------------|-----------------|
|-------------|-------------|-----------------|
|-------------|-------------|-----------------|
|-4-----------|-7-----------|-11-------(11)---|
|-4-------4-6-|-7-------7-9-|-11-------(11)---|
|-2-------2-4-|-5-------5-7-|--9--------(9)-0-|


  E/G#          B
          PM|
  H.      E E   H.      +E  E   Q.    E E E E E
|-------------|---------------|-----------------|
|-------------|---------------|-----------------|
|-------------|---------------|-----------------|
|-------------|-9-------(9)---|-9---------------|
|-7---------7-|-9-------(9)-x-|-9----/4-2-4-----|
|-4-------4-5-|-7-------(7)---|-7-----------4-0-|


  F#m           A               C#m            E/G#          A       C#m   G#m
 12/8
            PM|           PM|                PM                            ~~
  Q.    +E  E E Q.    +E  E E    Q.     +Q   E Q.    Q.      H.       Q.   Q.
|-----------------------------|----------------------------|------------------|
|-----------------------------|----------------------------|------------------|
|-----------------------------|----------------------------|------------------|
|-4-----(4)-----7-----(7)-----|-11-----(11)----------------|-7-------11-------|
|-4-----(4)-4-6-7-----(7)-7-9-|-11-----(11)----7-----7-----|-7-------11-------|
|-2-----(2)-2-4-5-----(5)-5-7-|--9------(9)--0-4-----4-----|-5--------9----4--|


  B                             Em
 4/4
                                    ~~~~~~~~~~~~~~
  H.      +E  E   H.      Q     E E H.        +W
|---------------|-------------|-------------|--------||
|---------------|-------------|-------------|--------||
|---------------|-------------|-------------|--------||
|-9-------(9)---|-9-----------|-------------|--------||
|-9-------(9)---|-9-----------|-------------|--------||
|-7-------(7)-7-|-7-------7\--|-0-2-3-------|-(3)----||


   Instrumental section
    Em
    Gtrs II, III
    S S S S +S  E  S S S S S +S  E  S   S S S S +S  E  S S S S S +S  E  S
||------------------------------------|------------------------------------|
||o-----------------------------------|------------------------------------|
||------------------------------------|------------------------------------|
||------------------------------------|------------------------------------|
||o-----------------------------------|------------------------------------|
||--0-2-3-0-(0)-0--0-0-2-3-0-(0)-0--0-|-0-2-3-0-(0)-0--0-0-2-3-0-(0)-0--0--|


  S S S S +S  E  S S S S S +S  E  S   S S S S +S  S S S +S  S S S +S  S E   3x
|-----------------------------------|---------------------------------------||
|-----------------------------------|--------------------------------------o||
|-----------------------------------|---------------------------------------||
|-----------------------------------|---------------------------------------||
|-----------------------------------|-------5-(5)-----4-(4)-----3-(3)---2--o||
|-0-2-3-0-(0)-0--0-0-2-3-0-(0)-0--0-|-0-2-3-------0h3-------0h3-------3-----||


 Synth solo
  Em
 6/4
  PM------------|     PM--------------------------------
  S S S S S S S S E   S S S S  S S  S S E    S  S  E
|------------------------------------------------------|
|------------------------------------------------------|
|------------------------------------------------------|
|-2-2-2-2---2-2-2-2---2-2-2-2----2--2-2-2----2--2--2---|
|------------------------------------------------------|
|------------------------------------------------------|
|
| Gtr IV
| S S S S S S S S S S S S S S  S S  S S S  S S  S  S S
|-----------------------------10---10------9-------8---|
|-8---8-7---7-8-7-8-7---7-8---12---12---8-11---11-10---|
|-9-9-9-8-9-8-9-8-9-8-9-8-9-9--9-9--9-9-9--9-9--9--9-9-|
|------------------------------------------------------|
|------------------------------------------------------|
|------------------------------------------------------|


 ----------------|     PM----------------------|
   S S S S S S S S E   S S S S S S S S E   S S  E
|---------------------------------------------------|
|---------------------------------------------------|
|---------------------------------------------------|
|--2-2-2-2---2-2-2-2---2-2-2-2---2-2-2-2---2-2--2---|
|---------------------------------------------------|
|---------------------------------------------------|
|
|  S S S S S S S S S S S S S S S S S S S S S S  S S
|--8-7---7-------------------------------------15---|
|-10-----8-7---8---8---8-7---7-8-7-8-7---7-8---17---|
|----9-9---8-9-9-9-9-9-9-8-9-8-9-8-9-8-9-8-9-9----9-|
|----------------------------------------------17---|
|---------------------------------------------------|
|---------------------------------------------------|


   PM-----------------|       PM-----------------------------
   S  S  S  S S  S  S S  E    S  S  S S S S S S E   S S E
|-----------------------------------------------------------|
|-----------------------------------------------------------|
|-----------------------------------------------------------|
|--2--2--2--2----2--2-2--2----2--2--2-2---2-2-2-2---2-2-2---|
|-----------------------------------------------------------|
|-----------------------------------------------------------|
|
|  S  S  S  S S  S  S S  S  S S  S  S S S S S S S S S S S S
|-15--0-15-14-0-14-13-0-13-12-0-----------------------------|
|-17----17-16---16-15---15-14---13------8---8---8-7---7-8-7-|
|-------------------------------12-11-9-9-9-9-9-9-8-9-8-9-8-|
|-17-17-17-16---16-15---15-14------13-----------------------|
|-----------------------------------------------------------|
|-----------------------------------------------------------|


 ----------------|      PM--------------------------|
  S S S S S S  S S  E   S  S S  S  S S  S S E   S S E
|-------------------------------------------------------|
|-------------------------------------------------------|
|-------------------------------------------------------|
|-2-2-2-2---2--2-2--2---2--2-2--2----2--2-2-2---2-2-2---|
|-------------------------------------------------------|
|-------------------------------------------------------|
|
| S S S S S S  S S  S S S  S S  S  S S  S S S S S S S S
|-------------10---10------9-------8----8-7---7---------|
|-8-7---7-8---12---12---8-11---11-10---10-----8-7---8---|
|-9-8-9-8-9-9--9-9--9-9-9--9-9--9--9-9----9-9---8-9-9-9-|
|-------------------------------------------------------|
|-------------------------------------------------------|
|-------------------------------------------------------|


   PM-----------------|       PM----------------------------------
   S  S  S  S S  S  S  S  E   S  S  S  S S  S  S  S E   S  S  E
|----------------------------------------------------------------|
|----------------------------------------------------------------|
|----------------------------------------------------------------|
|----------------------------------------------------------------|
|----------------------------------------------------------------|
|--0--0--0--0----0--0--0--0---0--0--0--0----0--0--0-0---0--0--0--|
|
|  S  S  S  S S  S  S  S  E   S  S  S  S S  S  S  S E   S  S  E
|-15p12---------12-----------14------------------------12--------|
|-------12---------12-----------14p11------14p11----------13p10--|
|-12-------12---------12-----11-------11---------11p6------------|
|----14---------14-------14-----11---------11----------14-10-----|
|-------14-10------14-10-----------13--9------13--9-7--------12--|
|-12-12-12-12---12-12-12-12--12-12-12-12---12-12-12-9--12-12-12--|
   S  S  S  S S  S  S  S  E   S  S  S  S S  S  S  S E   S  S  E


 ---------------------|      PM---------------------------|
   S  S  S  S S  S  S  S E   S  S  S S S  S  S S E   S  S  E
|-------------------------------------------------------------|
|-------------------------------------------------------------|
|-------------------------------------------------------------|
|-------------------------------------------------------------|
|-------------------------------------------------------------|
|--0--0--0--0----0--0--0-0---0--0--0-0----0--0-0-0---0--0--0--|
|
|  S  S  S  S S  S  S  S E   S  S  S E    S  S S E   S  S  E
|----------------7-----------9p=6---------6p=2-------8p=5-----|
|-12----------------8--------------7-----------2-----------5--|
|----12----------9-----9-----6-------6-----------3---5--------|
|-------14-14-------5----9------8--4-------------2------7-----|
|-14-10------------------7-----------7-----------1---------7--|
|-12-12-12-12---12-12-12-7--12-12-12-9---12-12-9----12-12-12--|
   S  S  S  S S  S  S  S E   S  S  S E    S  S S E   S  S  E


   PM----------------|      PM---------------------------
   S  S  S S S  S  S S E    S  S S S S S S S E   S S E
|-------------------------------------------------------|
|-------------------------------------------------------|
|-------------------------------------------------------|
|-------------------------------------------------------|
|-------------------------------------------------------|
|--0--0--0-0----0--0-0-0----0--0-0-0---0-0-0-0---0-0-0--|
|
|  S  S  S S S  S  S S E    S  S S S S S S S E   S S E
|--7-----0---------0--------6----------2----------------|
|--0--8--0-0----8----0---------7---------2--------------|
|-----0---------0------0---------6p5-------3-----2------|
|----------------------2---------------4-----4---2-2-2--|
|----------7---------7-------------------4p1---------3--|
|-12-12-12-7---12-12-7-3---12-12-9p8---------2---5p0----|
   S  S  S S S  S  S S E    S  S S S S S S S E   S S E


 ---------------------|         PM------------------------------------|
    S S S S   S   S S S E       S S S S   S    S  S  S  E        S  S  E
|----------------------------------------------------------------------------------------||
|----------------------------------------------------------------------------------------||
|----------------------------------------------------------------------------------------||
|----------------------------------------------------------------------------------------||
|----------------------------------------------------------------------------------------||
|---0-0-0-0-------0-0-0-0-------0-0-0-0--------0--0--0--0--------0--0--0-----------------||
|
| |-3-| |-3-| |-3-| |-3-| |-3-| |-3-| |-3-| |--3--|  |--3--|
| S S S S S S S S S S S S S S S S S S S S S S  S  S  S  S  S  T  T  T  T  T  T  T  T  e
|-----------------------------------5h6h7h8h9----------------15h16h17h18h20h21-21-22h24--||
|-------------------------5h6h7h8h9-----------15h16h17h18h19-----------------------------||
|---------------4h5h6h7h8----------------------------------------------------------------||
|-------5h6h7h8--------------------------------------------------------------------------||
|-7h8h9----------------------------------------------------------------------------------||
|----------------------------------------------------------------------------------------||


  F#
 4/4
   S  S  E     E     S  S +S   S  S  S  Q
|--------------------------------------------------|
|--------------------------------------------------|
|--------------------------------------------------|
|--------------------------------------------------|
|--------------------------------------------------|
|--2--2--------------2--2-(2)--2--2----------------|
|
|  S  S  S  S  S  S  S  E      S  S  S  S  S  S  S
|--------------------------------------------------|
|--------------------------------------------17----|
|-14----14-13-------14-14-----14-14-14-------18----|
|-16-16-16-15-16-15-16-16-----16-16----15-16----16-|
|--------------------------------------------------|
|--------------------------------------------------|


   S  S  E     E     S  S +S   S  S  S  Q
|---------------------------------------------------|
|---------------------------------------------------|
|---------------------------------------------------|
|---------------------------------------------------|
|---------------------------------------------------|
|--2--2--------------2--2-(2)--2--2-----------------|
|
|  S  S  S  S  S  S  S  S  S   S  S  S  S  S  S  S
|---------------------------------------------------|
|-17----17-16----16-15----15--14--------------------|
|-18----18-17----17-16----16--15----15-13----14-----|
|----16-------16-------16--------16-16-15-16-16-16--|
|---------------------------------------------------|
|---------------------------------------------------|


   S  S  E     E     S  S +S   S  S  S  Q
|--------------------------------------------------|
|--------------------------------------------------|
|--------------------------------------------------|
|--------------------------------------------------|
|--------------------------------------------------|
|--2--2--------------2--2-(2)--2--2----------------|
|
|  S  S  S  S  S  S  S  E      S  S  S  S  S  S  S
|--------------------------------------------17----|
|--------------------------------------------19----|
|-14----14-13-------14-14-----14-14-14-13-11-------|
|-16-16-16-15-16-15-16-16-----16-16----15-------16-|
|--------------------------------------------------|
|--------------------------------------------------|


   S  S  E     E     S  S +S   S  S  S  Q
|--------------------------------------------------||
|--------------------------------------------------||
|--------------------------------------------------||
|--------------------------------------------------||
|--------------------------------------------------||
|--2--2--------------2--2-(2)--2--2----------------||
|
|  S  S  S  S  S  S  S  S  S   S  S  S  S  S  S  S
|-17-------16-------15--------14-------------------||
|-19-------18-------17--------16-------------------||
|-------14-------14-------14--------14-13----14----||
|----16-16----16-16----16-16-----16-16-15-16-16-16-||
|--------------------------------------------------||
|--------------------------------------------------||


 Guitar Solo
    Em
    Gtr II
  |----6----|  |----6-----| |----6-----|  |----6----|
  S S S S S S  S  S S S S S S S S S S  S  S S S S S S
|-----------------------------------------------------|
|-----------------------------------------------------|
|-----------------4-5-7-5-4-----------------4-5-7-5-4-|
|---4-5-7-5-4-----------------4-5-7-5--4--------------|
|-7------------7------------7-------------7-----------|
|-----------------------------------------------------|
|
|   Gtr III
|   S S S   S +S    E     S S S S   S +S    E     S
|-----------------------------------------------------|
|-----------------------------------------------------|
|-----------------------------------------------------|
|-----------------------------------------------------|
|-----------------------------------------------------|
|---0-2-3---0-(0)---0-----0-0-2-3---0-(0)---0-----0---|


  |----6----| |-----6-----| |----6----|  |----6-----|
  S S S S S S S  S  S S S S S S S S S S  S  S S S S S
|------------------------------------------------------|
|-------------------------------------------5-7-8-7-5--|
|----------------4--5-7-5-4---5-7-9-7-5----------------|
|---4-5-7-5-4---------------9------------9-------------|
|-7-----------7----------------------------------------|
|------------------------------------------------------|
|
|   S S   S   S +S    E     S S S S   S +S  E     S
|------------------------------------------------------|
|------------------------------------------------------|
|------------------------------------------------------|
|------------------------------------------------------|
|------------------------------------------------------|
|---0-2---3---0-(0)---0-----0-0-2-3---0-(0)-0-----0----|


  |----6-----|  |-----6-----| |-----6-----|  |------6-------|
  S S S  S S S  S  S S  S S S S S S  S S  S  S  S  S  S  S  S
|------------------7-8-10-8-7------------------------12-------|
|---7-8-10-8-7------------------7-8-10-8--7----13-15----15-13-|
|-9-------------9-------------9--------------9----------------|
|-------------------------------------------------------------|
|-------------------------------------------------------------|
|-------------------------------------------------------------|
|
|   S S  S   S +S    E      S S S S    S +S     E        S
|-------------------------------------------------------------|
|-------------------------------------------------------------|
|-------------------------------------------------------------|
|-------------------------------------------------------------|
|-------------------------------------------------------------|
|---0-2--3---0-(0)---0------0-0-2-3----0-(0)----0--------0----|


  |----6-----|  |-------6-------|  |-------6-------|  |-------6-------|
  S S S  S S S  S  S   S  S  S  S  S  S   S  S  S  S  S  S   S  S  S  S
|-----------------12--14-15-14-12----14--15-17-15-14----15--17-19-17-15--|
|---7-8-10-8-7-15-----------------17-----------------19------------------|
|-9----------------------------------------------------------------------|
|------------------------------------------------------------------------|
|------------------------------------------------------------------------|
|------------------------------------------------------------------------|
|
|   S S    S    S +S      S  S     S +S   S  S     S    +S      S     E
|------------------------------------------------------------------------|
|------------------------------------------------------------------------|
|------------------------------------------------------------------------|
|------------------------------------------------------------------------|
|---------------5-(5)--------------4-(4)-----------3----(3)-----------2--|
|---0-2----3--------------0h=3------------0h=3------------------3--------|


  F#
                                                         ~~
   E    S  S      +S    S  E       S   T  T  S  S  S  S  E
|------14--------------14---------15--18p15s14-------14----|
|-19------18b19==(18)r----18b19----------------18-17----17-|
|----------------------------------------------------------|
|----------------------------------------------------------|
|----------------------------------------------------------|
|----------------------------------------------------------|
|
|  S S  E          E       S    S +S   S     S  S  Q
|----------------------------------------------------------|
|----------------------------------------------------------|
|----------------------------------------------------------|
|----------------------------------------------------------|
|----------------------------------------------------------|
|--2-2---------------------2----2-(2)--2-----2-------------|


                                                         ~~
   E    S  S      +S    S  E       S   T  T  S  S  S  S  E
|------14--------------14---------15--18p16s14-------14S21---|
|-19------18b19==(18)r----18b19----------------18-17---------|
|------------------------------------------------------------|
|------------------------------------------------------------|
|------------------------------------------------------------|
|------------------------------------------------------------|
|
|  S S  E          E       S    S +S   S     S  S  Q
|------------------------------------------------------------|
|------------------------------------------------------------|
|------------------------------------------------------------|
|------------------------------------------------------------|
|------------------------------------------------------------|
|--2-2---------------------2----2-(2)--2-----2---------------|


        |--3--|             |--3--|              |--3--|             |--3--|
   +E   S  S  S  T  T  T T  S  S  S  T  T  T  T  S  S  S  T  T  T T  S  S  S
|-(21)-----------------------------------------------------------------------|
|------19-19-19-19h20p19-0-17-17-17-17h19p17--0-15-15-15-15h17p15-0-14-14-14-|
|----------------------------------------------------------------------------|
|----------------------------------------------------------------------------|
|----------------------------------------------------------------------------|
|----------------------------------------------------------------------------|
|
|   S      S     E       E        S  S    +S     S        S     S    Q
|----------------------------------------------------------------------------|
|----------------------------------------------------------------------------|
|----------------------------------------------------------------------------|
|----------------------------------------------------------------------------|
|----------------------------------------------------------------------------|
|---2------2----------------------2--2----(2)----2--------2------------------|


              |--3--|             |--3--|             |-3-|          |-3-|
   T  T  T T  S  S  S  T  T  T T  S  S  S  T   T  T T S S S T  T T T S S S
|-----------------------------------------------------------------------------||
|-14h15p14-0-12-12-12-12h14p12-0-11-11-11-11h=12p11-0-8-8-8-8h11p8-0-7h8p7----||
|-----------------------------------------------------------------------------||
|-----------------------------------------------------------------------------||
|-----------------------------------------------------------------------------||
|-----------------------------------------------------------------------------||
|
|  S     S    E        E          S  S    +S      S     S   S      Q
|-----------------------------------------------------------------------------||
|-----------------------------------------------------------------------------||
|-----------------------------------------------------------------------------||
|-----------------------------------------------------------------------------||
|-----------------------------------------------------------------------------||
|--2-----2------------------------2--2----(2)-----2-----2---------------------||


  Em
  ~~               ~~~~~~~~~~~~~~~~
  Q.             S S +Q        +S  S S S
|----------------------------------------|
|----------------7-8-(8)-------(8)-7---7-|
|-9----------------------------------9---|
|----------------------------------------|
|----------------------------------------|
|----------------------------------------|
|
| S  S S S +S  E   S  S  S S S +S  E   S
|----------------------------------------|
|----------------------------------------|
|----------------------------------------|
|----------------------------------------|
|----------------------------------------|
|-0--2-3-0-(0)-0---0--0--2-3-0-(0)-0---0-|


           ~~~
  S S S S  S  S S S S S S S  S  S S S
|---------------------------------------|
|-8p7---7-------------------------------|
|-----9----9--7---7---------------------|
|---------------9---7p5---7-----5p4-----|
|-----------------------7----7------5---|
|---------------------------------------|
|
| S S S S +S  E   S S S S S +S  E   S
|---------------------------------------|
|---------------------------------------|
|---------------------------------------|
|---------------------------------------|
|---------------------------------------|
|-0-2-3-0-(0)-0---0-0-2-3-0-(0)-0---0---|


                                 |--3--|
  S S S S  S  S  S S  S  S S  S  T   T T S  S S
|--------------------------7-10--8h=10p8-7------||
|------------------------8-----------------10-8-||
|-----4-7--5p=4----7--9-------------------------||
|---5-----------/9------------------------------||
|-7---------------------------------------------||
|-----------------------------------------------||
|
| S S S S +S  S  S S +S  S S  S +S       S  E
|-----------------------------------------------||
|-----------------------------------------------||
|-----------------------------------------------||
|-----------------------------------------------||
|-------5-(5)------4-(4)------3-(3)---------2---||
|-0-2-3-------0h=3-------0h3-------------3------||


  F#
  |----6----| |----5----| |---5---| |---5---|
  S S S S S S S S  S  S S S S S S S S S S S S
|------------------7--9-7-6-7-9-7-6------------|
|-7-8-7-6-7-8-7-6-------------------7-8-7-6-7--|
|----------------------------------------------|
|----------------------------------------------|
|----------------------------------------------|
|----------------------------------------------|
|
| S   S E E S   S +S  S   S   S Q
|----------------------------------------------|
|----------------------------------------------|
|----------------------------------------------|
|----------------------------------------------|
|----------------------------------------------|
|-2---2-----2---2-(2)-2---2--------------------|


  |-----6------| |---5----| |----5----| |----5-----|
  S S S S  T T S S  S S S S S S  S  S S S S  S  S  S
|-------9-10p9-7-9-10-9-7-------------------10-12-10-|
|-8-7-6-------------------7-8-7--6--7-8-7-6----------|
|----------------------------------------------------|
|----------------------------------------------------|
|----------------------------------------------------|
|----------------------------------------------------|
|
| S   S    E     E      S   S   +S    S S S     Q
|----------------------------------------------------|
|----------------------------------------------------|
|----------------------------------------------------|
|----------------------------------------------------|
|----------------------------------------------------|
|-2---2-----------------2---2---(2)---2-2------------|


  |------6------|  |-----5-----|  |-----5------|  |---5----|
  S  S  S  S S  S  S  S  S  S  S  S  S   S  S  S  S S  S S S
|-9-10-12-10-9-14-15-14-13-14-15-14-13------------------------||
|-------------------------------------------------------------||
|---------------------------------------11-12-11-10-----------||
|-------------------------------------------------------------||
|---------------------------------------------------9-10-9-8--||
|-------------------------------------------------------------||
|
| S     S    E     E     S     S    +S      S  S  S    Q
|-------------------------------------------------------------||
|-------------------------------------------------------------||
|-------------------------------------------------------------||
|-------------------------------------------------------------||
|-------------------------------------------------------------||
|-2-----2----------------2-----2----(2)-----2--2--------------||


  Em
  S S S S  S  S S S S  S  S  S  S   S  S  S
|-------------------------------------------|
|-------------------------------------12-12-|
|---------------------11-11-11-11--11-------|
|-------9--9--9-9-9-9-----------------------|
|-7-7-7-------------------------------------|
|-------------------------------------------|
|
| S S S S +S  E   S S  S  S  S +S   E     S
|-------------------------------------------|
|-------------------------------------------|
|-------------------------------------------|
|-------------------------------------------|
|-------------------------------------------|
|-0-2-3-0-(0)-0---0-0--2--3--0-(0)--0-----0-|


   S  S  S  S  S   S  S  S  S   S  S  S  S   S  S  S
|----------14-14--14-----------19-19-19--------20-20-||
|-12-12-12-----------17-17-17-----------19--19-------||
|----------------------------------------------------||
|----------------------------------------------------||
|----------------------------------------------------||
|----------------------------------------------------||
|
|  S  S  S  S +S   S  S  S +S   S  S  S +S   S  E
|----------------------------------------------------||
|----------------------------------------------------||
|----------------------------------------------------||
|----------------------------------------------------||
|-----------5-(5)--------4-(4)--------3-(3)-----2----||
|--0--2--3---------0h=3---------0h=3---------3-------||


  F#
   |-----5-----|  |------6-------|  |-------6-------|  |-----5-----|
   S  S  S  S  S  S  S  S  S  S  S  S  S   S  S  S  S  S  S  S  S  S
|-21-22-21-19--------------------------------------------------------|
|-------------23-20-19-23-20-19--------------------------------------|
|-------------------------------21-19-18--21-19-18-16-18-19-21-19-18-|
|--------------------------------------------------------------------|
|--------------------------------------------------------------------|
|--------------------------------------------------------------------|
|
|  S     S     E     E     S     S    +S      S     S     S        Q
|--------------------------------------------------------------------|
|--------------------------------------------------------------------|
|--------------------------------------------------------------------|
|--------------------------------------------------------------------|
|--------------------------------------------------------------------|
|--2-----2-----------------2-----2----(2)-----2-----2----------------|


   |--------7--------|  |--3--|  |--------7---------|
   S  S  S  S  S  S  S  E  E  E  S  S  S  S   S  S  S  T  T  T  T  T  T  T  T
|--------------------------------------------14-18-21p18----------------------||
|----------------------------------------14--------------19-------------------||
|-------------------------------------15--------------------18----------------||
|-21-20-17-------------------------16--------------------------20-------------||
|----------21-19-17-------------16--------------------------------21----------||
|-------------------21-19-18-14--------------------------------------21-18-14-||
|
|  S     S     E        E     S     S    +S      S     S     S           Q
|-----------------------------------------------------------------------------||
|-----------------------------------------------------------------------------||
|-----------------------------------------------------------------------------||
|-----------------------------------------------------------------------------||
|-----------------------------------------------------------------------------||
|--2-----2--------------------2-----2----(2)-----2-----2----------------------||


  Em
   |------6-------|  |-------6-------|  |-------6-------|
   S  S  S  S  S  S  S   S  S  S  S  S  S   S  S  S  S  S   Q
|------------------------------------------------17-19-20S=24------||
|--------------------------------------17--19-20-------------------||
|-----------------------------14-16-17-----------------------------||
|-------------------14--16-17--------------------------------------||
|----------12-14-15------------------------------------------------||
|-12-14-15---------------------------------------------------------||
|
|  S     S  S  S    +S   S     S  S    +S   S  S  S    +S   S  E
|------------------------------------------------------------------||
|------------------------------------------------------------------||
|------------------------------------------------------------------||
|------------------------------------------------------------------||
|--------------5----(5)-----------4----(4)--------3----(3)-----2---||
|--0-----2--3------------0h====3------------0h=3------------3------||


  F#
          |--3--|
   E      S  S  S  S  S  S  S  S     S   S  S  S  S  S  S
|--------14-------17-14----14-------14--------19-17----17-||
|-17b19-----17p14-------17----17b19-----17-14-------19----||
|---------------------------------------------------------||
|---------------------------------------------------------||
|---------------------------------------------------------||
|---------------------------------------------------------||
|
|  S      S  E     E  S     S       +S      S  S  S     Q
|---------------------------------------------------------||
|---------------------------------------------------------||
|---------------------------------------------------------||
|---------------------------------------------------------||
|---------------------------------------------------------||
|--2------2-----------2-----2-------(2)-----2--2----------||


  B5
  Gtrs II, IV
   |--3---|
   S   S  S  S  S  S  S  S  S  S   S  S  S  S  S  S  S
|-19--20-19-17-20-19-------17--------------------------|
|--------------------19-17----19--17-16-19-17-16-------|
|------------------------------------------------17----|
|---------------------------------------------------19-|
|------------------------------------------------------|
|------------------------------------------------------|
|
|  Q.                    E    +Q.                 E
|------------------------------------------------------|
|------------------------0----(0)----------------------|
|--4---------------------------------------------------|
|--4---------------------------------------------------|
|--2----------------------------------------------2----|
|------------------------------------------------------|


  |-3--|
  S  S S S S S S S S  S  S S S S S S S
|-7--8-7-5-8-7-----5-------------------|
|--------------7-5----7--5-4-7-5-4-----|
|----------------------------------5---|
|------------------------------------7-|
|--------------------------------------|
|--------------------------------------|
|
| Q.             E   +Q.           E
|--------------------------------------|
|----------------0---(0)---------------|
|-4------------------------------------|
|-4------------------------------------|
|-2--------------------------------2---|
|--------------------------------------|


  Gtr IV
  |-3--|  |--3--|  |--3--|  |--3--|  |--3---|  |--3--|  |--3--|  |--3--|
  S  S S  S  S  S  S  S  S  S  S  S  S   S  S  S  S  S  S  S  S  S  S  S
|-----------------------------11--------11-12-14h17p14-------14h15h17h18-|
|--------------10----10h12h13----12h13-----------------16h17-------------|
|------9h11h12----11-----------------------------------------------------|
|-9h12-------------------------------------------------------------------|
|------------------------------------------------------------------------|
|------------------------------------------------------------------------|
|
| Gtrs II, III
| Q.                           E    +Q.                          E
|------------------------------------------------------------------------|
|------------------------------0----(0)----------------------------------|
|-4----------------------------------------------------------------------|
|-4----------------------------------------------------------------------|
|-2--------------------------------------------------------------2-------|
|------------------------------------------------------------------------|


   |--3---|  |--3--|  |--3--|  |--3--|  |--3--|   |--3--|  |--3--|  |--3--|
   S   S  S  S  S  S  S  S  S  S  S  S  S  S  S   S  S  S  S  S  S  S  S  S
|-19--------18-------17p14----16p14----15--------14-------13-----------------||
|-----19-------19-------------------------17--------16-------15----17p15-----||
|--------16-------16-------16-------16-------16--------16-------16-------16--||
|----------------------------------------------------------------------------||
|----------------------------------------------------------------------------||
|----------------------------------------------------------------------------||
|
|  Q.                                E       +Q.                       E
|----------------------------------------------------------------------------||
|------------------------------------0-------(0)-----------------------------||
|--4-------------------------------------------------------------------------||
|--4-------------------------------------------------------------------------||
|--2-------------------------------------------------------------------2-----||
|----------------------------------------------------------------------------||


 Synth solo
  Em
  \3
  W
|---------------------------------------|
|---------------------------------------|
|---------------------------------------|
|-9-------------------------------------|
|-7-------------------------------------|
|---------------------------------------|
|
| Gtr II
| S  S S S +S  S S S +S  S S S +S  S E
|---------------------------------------|
|---------------------------------------|
|---------------------------------------|
|---------------------------------------|
|--------5-(5)-----4-(4)-----3-(3)---2--|
|-0--2-3-------0h3-------0h3-------3----|


  F#
  \2.5___/
                 |----6----|  |----6-----| |-3-|
  a     +Q.      S S S S S S  S  S S S S S S S S
|--------------------------------------------------|
|--------------------------------------------------|
|----------------------------------------------4---|
|--------------------------------------4---7p4-----|
|----------------------0h2----5p=2-7p2---2---------|
|-2-----(2)------0h5p0-----2-----------------------|
|
| S         S  E   E   S S   +S    S   S S   Q
|--------------------------------------------------|
|--------------------------------------------------|
|--------------------------------------------------|
|--------------------------------------------------|
|--------------------------------------------------|
|-2---------2----------2-2---(2)---2---2-----------|


  Em
                             T
                          |-----6-----|  |------6-------|
  E     +E      +Q        S  S S S  S S  S   S S  S  S  S
|---------------------------------------------------------|
|---------------------------------------------------17h20-|
|-2b4r==(2)b4---(2)-------------------9--------9h12-------|
|--------------------------------9h12----9h=12------------|
|-------------------------9h19p9--------------------------|
|---------------------------------------------------------|
|
| S   S  S    S +S  E  S  S    S S    S +S   E    S
|---------------------------------------------------------|
|---------------------------------------------------------|
|---------------------------------------------------------|
|---------------------------------------------------------|
|---------------------------------------------------------|
|-0---2--3----0-(0)-0--0--0----2-3----0-(0)--0----0-------|


                          \0.5
   |--3--|
   S  S  S  E            +H.
|-17h19h22-22b24========(22)r------------------------|
|----------------------------------------------------|
|----------------------------------------------------|
|----------------------------------------------------|
|----------------------------------------------------|
|----------------------------------------------------|
|
|  S  S  S  S      +S     S    S S +S  S S S +S  S E
|----------------------------------------------------|
|----------------------------------------------------|
|----------------------------------------------------|
|----------------------------------------------------|
|-----------5------(5)-----------4-(4)-----3-(3)---2-|
|--0--2--3----------------0h===3-------0h3-------3---|


  F#
                       \1____/         \0.5
  S   S  E   e     e   a    +E        +E        +S    T T T T T T
|-----------------------------------------------------------------|
|-----------------------------------------------------------------|
|-----------------------------------------------------------------|
|-9s=11-----11----11--11---(11)------(11)------(11)-----7-------7-|
|-----------------------------------------------------9---9-7-9---|
|-----------------------------------------------------------------|
|
| S   S  E   E  S            S   +S          S      S   S   Q
|-----------------------------------------------------------------|
|-----------------------------------------------------------------|
|-----------------------------------------------------------------|
|-----------------------------------------------------------------|
|-----------------------------------------------------------------|
|-2---2---------2------------2---(2)---------2------2-------------|


  ~                                ~~
  Q         S   T  T  T  T  T   T  H
|---------------------------------21------------|
|-----------------------14h17-------------------|
|--------------------14--------14---------------|
|----------16--14h16----------------------------|
|-9---------------------------------------------|
|-----------------------------------------------|
|
| S  S  E   E   S     S    +S      S  S  S  Q
|-----------------------------------------------|
|-----------------------------------------------|
|-----------------------------------------------|
|-----------------------------------------------|
|-----------------------------------------------|
|-2--2----------2-----2----(2)-----2--2---------|


  Em
                            |--3---|
   S       +S        +Q     S S    S Q        T   T T T T T T T
|---------------------------------------------7-----------------|
|-10b12r==(10)b12---(10)---10p8h==10p8-----------10p8---8-------|
|-----------------------------------------------------9---9p7h9-|
|---------------------------------------------------------------|
|---------------------------------------------------------------|
|---------------------------------------------------------------|
|
|  S    S   S     S  +S  E      S    S S S S +S     E       S
|---------------------------------------------------------------|
|---------------------------------------------------------------|
|---------------------------------------------------------------|
|---------------------------------------------------------------|
|---------------------------------------------------------------|
|--0----2---3-----0--(0)-0------0----0-2-3-0-(0)----0-------0---|


                                    ~
  T T T T T T T T  T  T T T T T T T H
|----------------------------------------------------|
|-8--------------------------------------------------|
|---9p7---7h9p7--------------------------------------|
|-------9-------9p=7h=9p7h9---5----------------------|
|---------------------------7---7p5h7----------------|
|----------------------------------------------------|
|
| S   S   S   S   +S    E       S   S S S S +S  E S
|----------------------------------------------------|
|----------------------------------------------------|
|----------------------------------------------------|
|----------------------------------------------------|
|----------------------------------------------------|
|-0---2---3---0---(0)---0-------0---0-2-3-0-(0)-0-0--|


   ~~~~~
                     |--------3--------|
   Q.                S     +S         +S   +H
|-17b19-------------19b22r(19)b22====(19)-(19)r---------------|
|-------------------------------------------------------------|
|-------------------------------------------------------------|
|-------------------------------------------------------------|
|-------------------------------------------------------------|
|-------------------------------------------------------------|
|
|  S    S S S +S  S  S             S       +S   S S S +S  S E
|-------------------------------------------------------------|
|-------------------------------------------------------------|
|-------------------------------------------------------------|
|-------------------------------------------------------------|
|-----------5-(5)------------------4-------(4)------3-(3)---2-|
|--0----2-3-------0h=3--------------------------0h3-------3---|


  F#
  \1/       \1/
                                    ~~            ~~~
  Q.        Q           Q     E     Q.       E   +H
|---------------------------------|----------------------------|
|-----------------------------3b5-|-3--------2---(2)-----------|
|-6---------6-----------7---------|----------------------------|
|---------------------------------|----------------------------|
|---------------------------------|----------------------------|
|---------------------------------|----------------------------|
|
| S   S E E S   S +S  S S S Q       S  S E E S S +S  S S S Q
|---------------------------------|----------------------------|
|---------------------------------|----------------------------|
|---------------------------------|----------------------------|
|---------------------------------|----------------------------|
|---------------------------------|----------------------------|
|-2---2-----2---2-(2)-2-2---------|-2--2-----2-2-(2)-2-2-------|


  ~~~
                  |-3-|  |-3--| |-3-| |-3-| |-3-|
  Q          S  S S S S  S  S S S S S S S S S S S
|-------------------------------------------------|
|-------------------------------------------------|
|-4b6--------4------------------------------------|
|---------------8p5p4----5p=4---------------------|
|---------------------7-------7p5h7p5-4h5p4-------|
|-------------------------------------------7p6p3-|
|
| S    S  E  E  S   S   +S    S   S   S   Q
|-------------------------------------------------|
|-------------------------------------------------|
|-------------------------------------------------|
|-------------------------------------------------|
|-------------------------------------------------|
|-2----2--------2---2---(2)---2---2---------------|


  Em
  ~
                    |-3--| |--3--|  |--3--|   |--3--|
  H                 S S  S S  S  S  S  S  S   S  S  S
|----------------------------------12-15h19h=22-27p22-|
|-------------------------------12--------------------|
|---------------------9h12p9h12-----------------------|
|-------------------9---------------------------------|
|-----------------------------------------------------|
|-0---------------------------------------------------|
|
| S  S  S  S +S  E    S  S S     S  S    +S   E     S
|-----------------------------------------------------|
|-----------------------------------------------------|
|-----------------------------------------------------|
|-----------------------------------------------------|
|-----------------------------------------------------|
|-0--2--3--0-(0)-0----0--0-2-----3--0----(0)--0-----0-|


                       T           ~~~~~~~~~~~~
                       |--3--|
   Q.                  S  S  S  S  S  +E   +Q
|-27tr22--------------24p19p12-19-----------------|
|---------------------------------20-(20)-(20)----|
|-------------------------------------------------|
|-------------------------------------------------|
|-------------------------------------------------|
|-------------------------------------------------|
|
|  S     S S S +S  E   S  S  S  S  S  +S    E   S
|-------------------------------------------------|
|-------------------------------------------------|
|-------------------------------------------------|
|-------------------------------------------------|
|-------------------------------------------------|
|--0-----2-3-0-(0)-0---0--0--2--3--0--(0)---0---0-|


         |--3--|                  |--3--|  |--3--|  |--3---|  |--3--|
   E     S  S  S  S  T   T  S  S  S  S  S  S  S  S  S  S   S  S  S  S
|---------------------------------------------------------------------|
|---------------------------------------------------------------------|
|-19\---18-17-16----16--14-12-----------------------------------------|
|----------------17-----------14-14-12--------------------------------|
|--------------------------------------14-12-12-10----12--14-12-14----|
|--------------------------------------------------12--------------14-|
|
|  S  S     S     S +S   E     S     S     S  S     S +S      E     S
|---------------------------------------------------------------------|
|---------------------------------------------------------------------|
|---------------------------------------------------------------------|
|---------------------------------------------------------------------|
|---------------------------------------------------------------------|
|--0--2-----3-----0-(0)--0-----0-----0-----2--3-----0-(0)-----0-----0-|


  \3.5
  W
|-----------------------------------------|
|-----------------------------------------|
|-----------------------------------------|
|-----------------------------------------|
|-----------------------------------------|
|-0---------------------------------------|
|
| S    S S S +S  S S S +S  S S S +S  S E
|-----------------------------------------|
|-----------------------------------------|
|-----------------------------------------|
|-----------------------------------------|
|----------5-(5)-----4-(4)-----3-(3)---2--|
|-0----2-3-------0h3-------0h3-------3----|


  F#
   |--3--|              |--3--|              |--3---|  |--3--|  |--3--|
   S  S  S  T  T  T  T  S  S  S  T  T  T  T  S   S  S  S  S  S  S  S  S  T  T  T  T
|-------------------------------------------21p=17----19p17----17p14p12-19p17-------|
|--------------------------------------------------17-------17----------------19p17-|
|-18-------16p14-------14-------16p14-----------------------------------------------|
|----19p16-------16p14----16p14-------16p14-----------------------------------------|
|-----------------------------------------------------------------------------------|
|-----------------------------------------------------------------------------------|
|
|  S     S        E     E     S        S    +S            S     S     S        Q
|-----------------------------------------------------------------------------------|
|-----------------------------------------------------------------------------------|
|-----------------------------------------------------------------------------------|
|-----------------------------------------------------------------------------------|
|-----------------------------------------------------------------------------------|
|--2-----2--------------------2--------2----(2)-----------2-----2-------------------|


                                                             ~~
   |--3--|  |--3--|  |--3--|               |--3--|  |--3--|
   S  S  S  S  S  S  S  S  S  T  T  T  T   S  S  S  S  S  S  Q
|-----------------------------------------------------------14-----|
|-----------------------------------------14-------10--------------|
|-18-------16p14----14-------16p14-----------14-------11-----------|
|----19p16-------16----16p14-------16p14--------16-------14--------|
|------------------------------------------------------------------|
|------------------------------------------------------------------|
|
|  S     S     E     E     S     S    +S      S     S     S    Q
|------------------------------------------------------------------|
|------------------------------------------------------------------|
|------------------------------------------------------------------|
|------------------------------------------------------------------|
|------------------------------------------------------------------|
|--2-----2-----------------2-----2----(2)-----2-----2--------------|


   +E      a  +E         +E    +H             +E
|-(14)----14-(14)b20r===(14)--(14)b20========(14)r----|
|-----------------------------------------------------|
|-----------------------------------------------------|
|-----------------------------------------------------|
|-----------------------------------------------------|
|-----------------------------------------------------|
|
|   S   S  E   E     S    S    +S       S  S   S   Q
|-----------------------------------------------------|
|-----------------------------------------------------|
|-----------------------------------------------------|
|-----------------------------------------------------|
|-----------------------------------------------------|
|---2---2------------2----2----(2)------2--2----------|


   |--3--|
   S  S  S  S  S  T  T  T  T  S  S   S  S  S  S  E    E
|--------------------------------------------------------|
|-17p16p14----17p14--------------------------------------|
|----------16-------16p14--------------------------------|
|-------------------------16----14-----------------------|
|----------------------------16-----16----14-12----------|
|--------------------------------------17-------12---12--|
|
|  S     S  E     E     S     S +S   S     S  S    Q
|--------------------------------------------------------|
|--------------------------------------------------------|
|--------------------------------------------------------|
|--------------------------------------------------------|
|--------------------------------------------------------|
|--2-----2--------------2-----2-(2)--2-----2-------------|


  B5
   T  T  S  S  S  S  S  S  S   S  S  S  S  S  S  S  S
|-19h20p19-17-20-19-------17--14-12-11-14-12-11---------|
|-------------------19-17-----------------------12-10---|
|-------------------------------------------------------|
|-------------------------------------------------------|
|-------------------------------------------------------|
|-------------------------------------------------------|
|
|           PM---|             PM---|
|  E.       S  S  S  E    +S   S  S  S  S  S  S  S
|-------------------------------------------------------|
|-------------------------------------------------------|
|--------------------4----(4)-----------2--4-----2------|
|---------------------------------------------5---------|
|--2--------2--2--2------------2--2--2------------------|
|-------------------------------------------------------|


  T T S  S S S  S S   S S S S S S S S S
|-7h8p7----8-7--------------------------|
|-------10-----10-7--10-7-5-4-7-5-4-----|
|-----------------------------------4-2-|
|---------------------------------------|
|---------------------------------------|
|---------------------------------------|
|
|          PM--|          PM--|
| E.       S S  S E.      S S S S S S S
|---------------------------------------|
|---------------------------------------|
|-----------------2---------------2-----|
|-------------------------------5---4-5-|
|-2--------2-2--2---------2-2-2---------|
|---------------------------------------|


  N.C.                              Em
                                   2/4
  S S S S S S S S S S S S S S S S   E  E  Q
|-------------5-8-7-8-5-7---5-----|-----------||
|-5-4-----4-7-------------8---7-8-|-5---------||
|-----5-4-------------------------|-----------||
|---------------------------------|-----------||
|---------------------------------|-----------||
|---------------------------------|-----------||
|
| S S S S S S S S S S S S S S S S   E  E  Q
|---------------------------------|-----------||
|---------------------------------|-----------||
|-------------2-5-4-5-2-4---2-----|-----------||
|-2-1-----1-4-------------5---4-5-|-2---------||
|-----3-2-------------------------|-----------||
|---------------------------------|-----------||


    B
   4/4
    Gtrs II, IV
     S  S S  S S S  S S S  S S S  S S  S S    S S S  S S S  S S S  S S S  S S  S S
||-----------------------------------------|---------------------------------------|
||o-13-12-0-16-0-0-17-0-0-19-0-0-20-0-22-0-|-24-0-0-22-0-0-20-0-0-19-0-0-17-0-16-0-|
||-----------------------------------------|---------------------------------------|
||-----------------------------------------|---------------------------------------|
||o----------------------------------------|---------------------------------------|
||-----------------------------------------|---------------------------------------|


  Am
   S  S S  S S S  S S S  S S S  S S  S S
|-------------------------------------------|
|-13-12-0-16-0-0-17-0-0-19-0-0-20-0-22-0----|
|-------------------------------------------|
|-------------------------------------------|
|-------------------------------------------|
|-------------------------------------------|


   S S S  S S S  S S S  S S S  S S  S S
|---------------------------------------|
|-24-0-0-22-0-0-20-0-0-19-0-0-17-0-16-0-|
|---------------------------------------|
|---------------------------------------|
|---------------------------------------|
|---------------------------------------|


  Em
  S S S S S S S S S  S S S  S S  S S    S S S  S S S  S S S  S S S S S S S
|------------------------------------|----------------------------------------|
|-5-0-0-7-0-0-8-0-0-10-0-0-12-0-16-0-|-17-0-0-16-0-0-13-0-0-12-0-0-8-0-7-0----|
|------------------------------------|----------------------------------------|
|------------------------------------|----------------------------------------|
|------------------------------------|----------------------------------------|
|------------------------------------|----------------------------------------|


  S S S S S S S S S  S S S  S S  S S    S S S  S S S  S S S  S S S S S S S
|------------------------------------|--------------------------------------||
|-5-0-0-7-0-0-8-0-0-10-0-0-12-0-16-0-|-17-0-0-16-0-0-13-0-0-12-0-0-8-0-7-0-o||
|------------------------------------|--------------------------------------||
|------------------------------------|--------------------------------------||
|------------------------------------|-------------------------------------o||
|------------------------------------|--------------------------------------||


  C
  S S S  S S S  S S S  S S S  S S  S S
|-8-7-0-10-0-0-12-0-0-14-0-0-15-0-17-0----|
|-----------------------------------------|
|-----------------------------------------|
|-----------------------------------------|
|-----------------------------------------|
|-----------------------------------------|


   S S S  S S S  S S S  S S S  S S  S S   S S S  S S S  S S S  S S S  S S  S S
|-19-0-0-17-0-0-15-0-0-14-0-0-12-0-10-0-|-8-7-0-10-0-0-12-0-0-14-0-0-15-0-17-0-|
|---------------------------------------|--------------------------------------|
|---------------------------------------|--------------------------------------|
|---------------------------------------|--------------------------------------|
|---------------------------------------|--------------------------------------|
|---------------------------------------|--------------------------------------|


   S S S  S S S  S S S  S S S  S S  S S
|-22-0-0-20-0-0-19-0-0-17-0-0-15-0-14-0----|
|------------------------------------------|
|------------------------------------------|
|------------------------------------------|
|------------------------------------------|
|------------------------------------------|


  Em
   S S S  S S S  S S S  S S S  S S  S S    S S S  S S S  S S S  S S S  S S  S S
|-24-0-0-24-0-0-24-0-0-24-0-0-24-0-24-0-|-24-0-0-24-0-0-24-0-0-24-0-0-24-0-24-0-|
|---------------------------------------|---------------------------------------|
|---------------------------------------|---------------------------------------|
|---------------------------------------|---------------------------------------|
|---------------------------------------|---------------------------------------|
|---------------------------------------|---------------------------------------|


   S S S  S S S  S S S  S S S  S S  S S
|-24-0-0-24-0-0-24-0-0-24-0-0-24-0-24-0----|
|------------------------------------------|
|------------------------------------------|
|------------------------------------------|
|------------------------------------------|
|------------------------------------------|


           Half Time Q=66
           E5            Eb5        Em
 2/4      4/4
  Gtr III
      ~
  E E Q    e E Q   H         W         W
|--------|-------------|----------|--------*|
|--------|-------------|----------|--------*|
|--------|-------------|----------|--------*|
|--------|-2-----------|----------|--------*|
|--------|-2-----------|----------|--------*|
|-0-2-3--|-0-----------|----------|--------*|




--------------------------------------------------------------------------------


Duration Legend
---------------
W - whole; H - half; Q - quarter; E - 8th; S - 16th; T - 32nd; X - 64th; a - acciaccatura
+ - note tied to previous; . - note dotted; .. - note double dotted
Uncapitalized letters represent notes that are staccato (1/2 duration)
Irregular groupings are notated above the duration line
Duration letters will always appear directly above the note/fret number it represents the
duration for.  Duration letters with no fret number below them represent rests.  Multi-
bar rests are notated in the form Wxn, where n is the number of bars to rest for.  Low
melody durations appear below the staff

Tablature Legend
----------------
 h   - hammer-on
 p   - pull-off
 b   - bend
 pb  - pre-bend
 r   - bend release (if no number after the r, then release immediately)
 /\  - slide into or out of (from/to "nowhere")
 s   - legato slide
 S   - shift slide
 - natural harmonic
[n]  - artificial harmonic
n(n) - tapped harmonic
 ~   - vibrato
 tr  - trill
 T   - tap
 TP  - trem. picking
 PM  - palm muting
\n/  - tremolo bar dip; n = amount to dip
 \n  - tremolo bar down
 n/  - tremolo bar up
/n\  - tremolo bar inverted dip
 =   - hold bend; also acts as connecting device for hammers/pulls
 <> - volume swell (louder/softer)
 x   - on rhythm slash represents muted slash
 o   - on rhythm slash represents single note slash

Misc Legend
-----------
 |  - bar
||  - double bar
||o - repeat start
o|| - repeat end
*|  - double bar (ending)
 :  - bar (freetime)
 $  - Segno
 &  - Coda
Tempo markers -  = BPM(8/16=s8/s16), where s8 = swing 8ths, s16 = swing 16ths

Tap to rate this tab
 
# A B C D E F G H I J K L M N O P Q R S T U V W X Y Z