Guitaretab - guitar tabs
Song name
# A B C D E F G H I J K L M N O P Q R S T U V W X Y Z

Dream Theater - The Dance Of Eternity tab

                             DANCE OF ETERNITY, THE
                          As recorded by Dream Theater
         (From the 1999 Album METROPOLIS PART. 2: SCENES FROM A MEMORY)

Music by James Labrie, John Petrucci, Mike Portnoy, and Jordan Rudess.

          E5                   D5                   A5                   F5
     5 7 7 x x x x        3 5 5 x x x x        x 5 7 7 x x x        x 1 3 3 

          F5                   G5
     x x x 1 3 3          x 3 x 0 0 3 3

Gtr I (B E A D G B E) - 'John Petrucci'
Gtr II (B E A D G B E) - 'John Petrucci'
Gtr III (B E A D G B E) - 'Jordan Rudess'
Gtr IV (A E A D G B E) - 'Jordan Rudess'

 Intro
  Moderately Q=108
               D5
 4/4
  Gtr I
  Wx6          Wx4
|------------|--------||
|------------|--------||
|------------|--------||
|------------|--------||
|------------|--------||
|------------|--------||
|------------|--------||


  D5
  PM----------------------------------------------|
  |-3-|           |-3-|     |-3-|           |-3-|
  S S S E E E E E S S S E   S S S E E E E E S S S E
|-------------------------|-------------------------|
|-------------------------|-------------------------|
|-------------------------|-------------------------|
|-0-0-0-0---0---0-0-0-0-0-|-0-0-0-0---0---0-0-0-0-0-|
|-------------------------|-------------------------|
|-------------------------|-------------------------|
|-------------------------|-------------------------|


 ---------------------------------------------------------|
  |-3-|           |-3-|     |-3-|     |-3-| |-3-|   |-3-|
  S S S E E E E E S S S E   S S S E E S S S S S S E S S S E
|-------------------------|------------------------------------|
|-------------------------|------------------------------------|
|-------------------------|------------------------------------|
|-0-0-0-0---0---0-0-0-0-0-|-0-0-0-0---0-0-0-0-0-0-0-0-0-0-0----|
|-------------------------|------------------------------------|
|-------------------------|------------------------------------|
|-------------------------|------------------------------------|


    Faster Q=124                            1.              2.
    G5       Ab5    G5       F5   E5        C5   F#5        C5   Eb5
                   7/8           3/4
    H    +E  Q.     H    +E  Q    H.        Q.   E +Q       Q.   E +Q
||--3----(3)------|-3----(3)----|---------|--------------||--------------|
||--3----(3)------|-3----(3)----|---------|--------------||--------------|
||o-0----(0)------|-0----(0)----|---------|-------------o||--------------|
||--0----(0)-6----|-0----(0)-3--|-2-------|------4-(4)---||--------------|
||o-x----(x)-6----|-x----(x)-3--|-2-------|-3----4-(4)--o||-3----6-(6)---|
||--3----(3)-4----|-3----(3)-1--|-0-------|-3----2-(2)---||-3----6-(6)---|
||----------------|-------------|---------|-1------------||-1----4-(4)---|


                                        1.
    N.C.
   4/4               7/8               4/4
    E E E E E E E E   E E E S S E E E   E E E E E E E E
||------------------|-----------------|-----------------|
||------------------|-----------------|-----------------|
||o-----------------|-----------------|-----------4-5---|
||------5---3-6-5---|---------3-5-----|-----2-3-2-------|
||o---5---5-------6-|-5---5-6-----3---|---2-----------3-|
||--3---------------|---3-----------1-|-0---------------|
||------------------|-----------------|-----------------|


                2.
 5/8           4/4                   5/8
                              |-3-|
  E E E E E     E E E E E E E S S S   E E E E E
|------------||---------------------|--------------|
|------------||---------------------|--------------|
|-----------o||-----------4-5-------|--------------|
|-5-----6----||-----2-3-2-----------|-5------------|
|---4-------o||---2-----------3-5-6-|---6----------|
|-----2---4--||-0-------------------|-------6-4----|
|------------||---------------------|-----4--------|


 3/8           7/16            2/4             7/16
  E S S +S  S   S S S S S S S   E S S +S  S E   S S S S S S S
|-------------|---------------|---------------|----------------|
|-------------|---------------|---------------|----------------|
|-------------|---------------|---------------|----------------|
|-------------|---------3h5-6-|---------------|----------------|
|-------------|-----3h5-------|---------------|-5-3------------|
|-3-4-3-(3)-4-|-3h4-----------|-3-4-3-(3)-4-3-|-----4-3--------|
|-------------|---------------|---------------|---------6-4-3--|


 5/8               7/16            2/4               3/8
  E S S +S  S E E   S S S S S S S   E S S +S  S S S   S S S S S S
|-----------------|---------------|-----------------|-------------|
|-----------------|---------------|-----------------|-------------|
|-----------------|---------------|-----------------|-------------|
|-----------------|---------3h5-6-|-----------------|-------------|
|-----------------|-----3h5-------|-----------------|-5-3---------|
|-3-4-3-(3)-4-3-4-|-3h4-----------|-3-4-3-(3)-4-3h4-|-----4-3-----|
|-----------------|---------------|-----------------|---------6-4-|


  D5       Eb5    D5       C5   B5        G5       C#5
 4/4             7/8           3/4
  H    +E  Q.     H    +E  Q    H.        Q.   +E  Q
|---------------|-------------|---------|-3----(3)----|
|---------------|-------------|---------|-3----(3)----|
|---------------|-------------|---------|-0----(0)----|
|---------------|-------------|---------|-0----(0)----|
|-5----(5)-6----|-5----(5)-3--|-2-------|-x----(x)-4--|
|-5----(5)-6----|-5----(5)-3--|-2-------|-3----(3)-4--|
|-3----(3)-4----|-3----(3)-1--|-0-------|----------2--|


  D5       Eb5    D5       C5   Ab5
 4/4             7/8           4/4
  H    +E  Q.     H    +E  Q    W
|---------------|-------------|----------|
|---------------|-------------|----------|
|---------------|-------------|----------|
|---------------|-------------|-6--------|
|-5----(5)-6----|-5----(5)-3--|-6--------|
|-5----(5)-6----|-5----(5)-3--|-4--------|
|-3----(3)-4----|-3----(3)-1--|----------|
|
| Gtr III
| W               W             W
|---------------|-------------|----------|
|---------------|-------------|----------|
|---------------|-------------|----------|
|---------------|-------------|----------|
|---------------|-------------|----------|
|---------------|-------------|----------|
|---------------|-------------|----------|


  G5
 5/4
   e        E     W
|-----------------------------------------------------------------|
|-----------------------------------------------------------------|
|-----------------------------------------------------------------|
|--5--------------------------------------------------------------|
|--5--------------------------------------------------------------|
|--3--------------------------------------------------------------|
|-----------------------------------------------------------------|
|
|  |--3--|
|  S  S  S  S  S  S  S  S  S  S  S  S  S  S  S  S  S  S  S  S  S
|-15-------15-20----16----15--------------------------------------|
|----15-------18-------------------16-----------------------------|
|-------16-------17-18----17----17-------18----17-----------------|
|----------------------18----17----18----16----15----15-18--------|
|-------------------------------------18----16----15----18----16--|
|----------------------------------------------------------16-----|
|-----------------------------------------------------------------|


  N.C.
 5/8               7/16            2/4             7/16
  E S S +S  S E E   S S S S S S S   E S S +S  S E   S S S S S S S
|-----------------|---------------|---------------|---------------|
|-----------------|---------------|---------------|---------------|
|-----------------|---------------|---------------|---------------|
|-----------------|---------3h5-6-|---------------|---------------|
|-----------------|-----3h5-------|---------------|-5-3-----------|
|-3-4-3-(3)-4-3-4-|-3h4-----------|-3-4-3-(3)-4-3-|-----4-3-------|
|-----------------|---------------|---------------|---------6-4-3-|


                                Bb5  Ab5    D5   E5
 3/8           7/16            4/4              3/4
  E S S +S  S   S S S S S S S   Q.   E +Q   Q    e E H      e E H
|-------------|---------------|----------------|----------|----------||
|-------------|---------------|----------------|----------|----------||
|-------------|---------------|----------------|----------|----------||
|-------------|---------3h5-6-|-8----6-(6)-----|----------|----------||
|-------------|-----3h5-------|-8----6-(6)--5--|-7--------|-7--------||
|-3-4-3-(3)-4-|-3h4-----------|-6----4-(4)--5--|-7--------|-7--------||
|-------------|---------------|-------------3--|-5--------|-5--------||


  N.C.
 4/4
   S  S  S  S  S  S  S  S  S  S  S  S  E     E
|-------------------------------------------------|
|-------------------------------------------------|
|-------------------------------------------------|
|-----------4--4--4-----------4--4--4--------4----|
|--------------------------------------4----------|
|--2--2--2-----------2--2--2----------------------|
|-------------------------------------------------|
|
| Gtr IV
|  S  S  S  S  S  S  S  S  S  S  S  S  S  S  S  S
|-14----------------14-------------------------16-|
|----14-12-14-12-------14-12-14-12----------------|
|----------------11----------------11----11-12----|
|-------------------------------------11----------|
|-------------------------------------------------|
|-------------------------------------------------|
|-------------------------------------------------|


 3/4
   E        E        S  S  S  S  S  S  S  S
|-------------------------------------------|
|-------------------------------------------|
|-----------------------------7--3----------|
|--5-----------------------6--------4-------|
|-----------3-----------5--------------5----|
|--------------------4--------------------6-|
|-------------------------------------------|
|
|  |--3--|  |--3--|
|  S  S  S  S  S  S  S  S  S  S  S  S  S  S
|-15-------------------------10-------------|
|----16-15-13-------------------12----------|
|-------------13----------13-------12-------|
|----------------13----12-------------12----|
|-------------------11-------------------14-|
|-------------------------------------------|
|-------------------------------------------|


 4/4
   S  S  S  S  S  S  S  S  S  S  S  S  E        E
|----------------------------------------------------|
|----------------------------------------------------|
|----------------------------------------------------|
|-----------4--4--4-----------4--4--4-----------4----|
|--------------------------------------4-------------|
|--2--2--2-----------2--2--2-------------------------|
|----------------------------------------------------|
|
|                                      |--3--|
|  S  S  S  S  S  S  S  S  S  S  S  S  S  S  S  S  S
|-14----------------14----------------16-12----------|
|----14-12-14-12-------14-12-14-12----------14-------|
|----------------11----------------11----------13----|
|-------------------------------------------------11-|
|----------------------------------------------------|
|----------------------------------------------------|
|----------------------------------------------------|


 3/4
   E           E           S  S  S  S  S  S  S  S
|--------------------------------------------------|
|--------------------------------------------------|
|--------------------------7--------3--------------|
|--5--------------------------6--------4-----------|
|--------------3-----------------5--------5-----4--|
|--------------------------------------------3-----|
|--------------------------------------------------|
|
|  T  T  T  T  T  T  T  T  S  S  S  S  S  S  S  S
|-15-----------------------------------------------|
|----15-13-15-13----------15-------11--------------|
|----------------12----------13-------11----12-----|
|-------------------10----------12-------12----11--|
|----------------------10--------------------------|
|--------------------------------------------------|
|--------------------------------------------------|


 4/4
   S  S  S  S  S  S  S  S  S  S  S  S  E        E
|----------------------------------------------------|
|----------------------------------------------------|
|----------------------------------------------------|
|-----------4--4--4-----------4--4--4-----------4----|
|--------------------------------------4-------------|
|--2--2--2-----------2--2--2-------------------------|
|----------------------------------------------------|
|
|                                      |--3--|
|  S  S  S  S  S  S  S  S  S  S  S  S  S  S  S  S  S
|-14----------------14----------------------------16-|
|----14-12-14-12-------14-12-14-12-------------13----|
|----------------11----------------11----11-13-------|
|-------------------------------------11-------------|
|----------------------------------------------------|
|----------------------------------------------------|
|----------------------------------------------------|


 3/4
   E        E        S  S  S  S  S  S  S  S
|--------------------------------------------|
|--------------------------------------------|
|-----------------------------7--9-----------|
|--5-----------------------8--------6--------|
|-----------3-----------9--------------5-----|
|--------------------6--------------------4--|
|--------------------------------------------|
|
|  |--3--|  |--3--|
|  S  S  S  S  S  S  S  S  S  S  S  S  S  S
|-15-------------------------10-12-----------|
|----15-13-------------------------11--------|
|----------12-------------13-----------------|
|-------------12-10----12-------------14-----|
|-------------------11-------------------13--|
|--------------------------------------------|
|--------------------------------------------|


 4/4
   S  S  S  S  S  S  S  S  S  S  S  S  E        E
|-------------------------------------------------------|
|-------------------------------------------------------|
|-------------------------------------------------------|
|-----------4--4--4-----------4--4--4-----------4-------|
|--------------------------------------4----------------|
|--2--2--2-----------2--2--2----------------------------|
|-------------------------------------------------------|
|
|                                      |--3--|  |--3--|
|  S  S  S  S  S  S  S  S  S  S  S  S  S  S  S  S  S  S
|-14----------------14----------------16----------------|
|----14-12-14-12-------14-12-14-12-------16-14-16-14----|
|----------------11----------------11----------------13-|
|-------------------------------------------------------|
|-------------------------------------------------------|
|-------------------------------------------------------|
|-------------------------------------------------------|


 7/8
               PM---------------------------------|
               |--3--|  |--3--|     |--3--|  |--3--|
   E     E     S  S  S  S  S  S  E  S  S  S  S  S  S
|-----------------------------------------------------||
|-----------------------------------------------------||
|-----------------------------------------------------||
|--5--------------------------------------------------||
|--------3--------------------------------------------||
|--------------5--5--4--3--3--2--1--------------------||
|-----------------------------------1--5--4--3--3--2--||
|
|              |--3--|  |--3--|     |--3--|  |--3--|
|  S  S  S  S  S  S  S  S  S  S  E  S  S  S  S  S  S
|-15--------------------------------------------------||
|----15-13--------------------------------------------||
|----------12-15-15-14-13-13-12-11--------------------||
|----------------------------------14-13-12-11-11-10--||
|-----------------------------------------------------||
|-----------------------------------------------------||
|-----------------------------------------------------||


    N.C.(B5)
   5/4
    PM-----------------------------------
    S S S S S S S S E S S S S S S S S E
||--------------------------------------|
||--------------------------------------|
||o-------------------------------------|
||--------------------------------------|
||o-------------------------------------|
||--------------------------------------|
||--0-0-0-0---0-0-0-0-0-0-0-0---0-0-0-0-|


 6/4
 -----------------------------------------|
  S S S S S S S S E S S S S S S S S E S S E
|--------------------------------------------||
|--------------------------------------------||
|-------------------------------------------o||
|--------------------------------------------||
|-------------------------------------------o||
|--------------------------------------------||
|-0-0-0-0---0-0-0-0-0-0-0-0---0-0-0-0-0-0-0--||


 5/4
  PM-----------------------------------
  S S S S S S S S E S S S S S S S S E
|-------------------------------------|
|-------------------------------------|
|-------------------------------------|
|-------------------------------------|
|-------------------------------------|
|-7-7-7-7---7-7-7-7-7-7-7-7---7-7-7-7-|
|-0-0-0-0---0-0-0-0-0-0-0-0---0-0-0-0-|


 6/4
 -----------------------------------------|
  S S S S S S S S E S S S S S S S S E S S E
|--------------------------------------------|
|--------------------------------------------|
|--------------------------------------------|
|--------------------------------------------|
|--------------------------------------------|
|-7-7-7-7---7-7-7-7-7-7-7-7---7-7-7-7-7-7-7--|
|-0-0-0-0---0-0-0-0-0-0-0-0---0-0-0-0-0-0-0--|


  H.=H
 4/4                               3/4
  PM------------------------------------------------------|
  |-3-|   |-3-|   |-3-|   |-3-|     |-3-|   |-3-|   |-3-|
  S S S E S S S E S S S E S S S E   S S S E S S S E S S S E
|---------------------------------|-------------------------|
|---------------------------------|-------------------------|
|---------------------------------|-------------------------|
|---------------------------------|-------------------------|
|---------------------------------|-------------------------|
|-7-7-7-7-7-7-7-7-7-7-7-7-7-7-7-7-|-7-7-7-7-7-7-7-7-7-7-7-7-|
|-0-0-0-0-0-0-0-0-0-0-0-0-0-0-0-0-|-0-0-0-0-0-0-0-0-0-0-0-0-|


  N.C.
 3/8
  T  T  T T  T  T  T  T  T  T  T  T
|--------------------------12-13-14-||
|-----------------12-13-15----------||
|---------9-11-12-------------------||
|-9-10-12---------------------------||
|-----------------------------------||
|-----------------------------------||
|-----------------------------------||


    a tempo Q=124
    Em                       F#           Am
   5/4
     S  S  S  S S  S S S S S  S S  S  S S  S S  S S S
||--15p12---------12p7-------14p9---------12p8--------|
||--------12-----------8----------11-----------10-----|
||o----------12----------9-----------11-----------9---|
||----------------------------------------------------|
||o---------------------------------------------------|
||----------------------------------------------------|
||----------------------------------------------------|


  Em                   F#                  Am
 6/4
   S S S S S S S S S S S S S S S S S S S S S S S S
|-12p7-------7p3-------9p6-------6p2-------8p5-------||
|------8---------5---------7---------2---------5-----||
|--------9---------4---------6---------3------------o||
|----------------------------------------------------||
|---------------------------------------------------o||
|----------------------------------------------------||
|----------------------------------------------------||


  Em
 4/4
   S S S  S S S S  S S S S S S S S S
|-12p7-0-11p7-0---10p9-0-8p7-0-6p5---|
|----------------------------------7-|
|------------------------------------|
|------------------------------------|
|------------------------------------|
|------------------------------------|
|------------------------------------|


  C7                B7
  S S S S S S  S  S  S  S  S  S  S  S S S
|-----------7-14h15-12----12-------12------|
|-8-----7h8------------11----11p10----8p7--|
|---8h9------------------------------------|
|------------------------------------------|
|------------------------------------------|
|------------------------------------------|
|------------------------------------------|


  Em                                   E7
   S S S  S S S S  S S S S S S S S S   S S S S S S S S S S S S S S S S
|-12p7-0-11p7-0---10p9-0-8p7-0-6p5---|---------------------------------|
|----------------------------------7-|-8-------5-----------------------|
|------------------------------------|---5-6-8-------5-6-------3-------|
|------------------------------------|-----------7-8-----4-5-7---7-5-4-|
|------------------------------------|---------------------------------|
|------------------------------------|---------------------------------|
|------------------------------------|---------------------------------|


  Em                                C7              B7
  PM--------------------------------------------------------------|
  S S S S S S S S S S S S S S S S   S S S S S S S S S S S S S S S S
|---------------------------------|---------------------------------|
|---------------------------------|---------------------------------|
|---------------------------------|---------------------------------|
|---------------------------------|---------------------------------|
|-7-----6-------5p4---3p2---1p0---|-----------------2-3-4-5-6---6-9-|
|---7-0---7-0-------0-----0-----2-|-3p2---2-----2-3-----------7-----|
|---------------------------------|-----5---4-5---------------------|


  Em
  PM----------------------------|
  S S S S S S S S S S S S S S S S
|---------------------------------|
|---------------------------------|
|---------------------------------|
|---------------------------------|
|-7-----6-------5p4---3p2---1p0---|
|---7-0---7-0-------0-----0-----2-|
|---------------------------------|


  C7        B7
                     |------6-------|  |--------7--------|
  E e s s S S +S  S  T  T  T  T  T  T  S  S  S  S  S  S  S
|----------------------------------16-19p14-----------------||
|-------------------------------16----------16--------------||
|----------------------------16----------------16-----------||
|-------------------------16----------------------16--------||
|-3-3-3-3---2-(2)---14-18----------------------------18-14--||
|-3-3-3-3---2-(2)-------------------------------------------||
|-1-1-1-1---0-(0)-------------------------------------------||


  E5
   E     E     E     S  S +S   E    S E    E
|-----------------------------------------------|
|-----------------------------------------------|
|-----------------------------------------------|
|-----------------------------------------------|
|--7-----7--------------7-(7)--7----7-----------|
|--7-----7--------------7-(7)--7----7-----------|
|--5-----5-----0-----0--5-(5)--5----5-0----0----|
|
| Gtr III
|  S  S  S  S  S  S  S  S  S   S S  S S  S S  S
|-------------------14-15-12------------10---10-|
|----------------12-----------12---16-----------|
|-12-------11-12------------------------16---13-|
|----13-14-------------------------14-----------|
|-----------------------------------------------|
|-----------------------------------------------|
|-----------------------------------------------|


  C#5       C5    B5                         D5          D#5
   E    E    S  E  S +S  S  E                 E          E
|--------------------------------------------------------------------|
|--------------------------------------------------------------------|
|--------------------------------------------------------------------|
|--------------------------------------------------------------------|
|--4----4----3--3-----------------------------5----------6-----------|
|--4----4----3--3-----------------------------5----------6-----------|
|--2----2----1--1--0-(0)-0--0-----------------3----------4-----------|
|
|                           |------6-------|  |---------7---------|
|  S S  S S  S  E  E     S  T  T  T  T  T  T  S  S  S  S    S  S  S
|-15---15---14-14-14----------------------16-19p14-------------------|
|--------------------------------------16----------16----------------|
|-18---18---17-17-16----------------16----------------16-------------|
|--------------------------------16------------------------16--------|
|--------------------------14-18------------------------------18-14--|
|--------------------------------------------------------------------|
|--------------------------------------------------------------------|


  E5
   E     E     E     S  S +S   E  S   E      E
|-------------------------------------------------|
|-------------------------------------------------|
|-------------------------------------------------|
|-------------------------------------------------|
|--7-----7--------------7-(7)--7--7---------------|
|--7-----7--------------7-(7)--7--7---------------|
|--5-----5-----0-----0--5-(5)--5--5---0------0----|
|
|  S  S  S  S  S  S  S  S  S   E  S  +S   S  S  S
|-------------------14-15-12-----12-(12)----------|
|----------------12-----------12------------------|
|-12-------11-12-------------------------------11-|
|----13-14-----------------------14-(14)-13-14----|
|-------------------------------------------------|
|-------------------------------------------------|
|-------------------------------------------------|


  F#5         B5        G5     Gb5      F5
   E  E  S  E  S +S   S  E       E      E
|-----------------------------------------|
|-----------------------------------------|
|-----------------------------------------|
|-----------------------------------------|
|--9--9--9--9-----------10-------9------8-|
|--9--9--9--9-----------10-------9------8-|
|--7--7--7--7--0-(0)--0--8-------7------6-|
|
|  S  S  S  S  S  S   S  S      +H
|-------------11-12--14-------------------|
|----11-12-14-----------12tr13-(12tr13)---|
|-12--------------------------------------|
|-----------------------------------------|
|-----------------------------------------|
|-----------------------------------------|
|-----------------------------------------|


  E5          Eb5      D5       Db5
   E     S  S  E  S  S  E     S  S +S   E  S
|--------------------------------------------|
|--------------------------------------------|
|--------------------------------------------|
|--------------------------------------------|
|--------------------------------------------|
|--7-----------6--------5--------4-(4)--4----|
|--5-----0--0--4--0--0--3-----0--2-(2)--2--0-|
|
|  S  S  S  S  E  S  S  S  S  S  S  S   E  S
|--------------------------------------------|
|--------------------------------------------|
|----12-12----12-------12-------12-----12----|
|----14-14----13-------12-------11-----11----|
|----------------10-14----14-10--------------|
|-12-------12-----------------------------10-|
|--------------------------------------------|


  C5                                   D5       D#5
   E    E     S E    S +S   S E          E      E
|-------------------------------------------------|
|-------------------------------------------------|
|-------------------------------------------------|
|-------------------------------------------------|
|--3----3-----3-3------------------------5------6-|
|--3----3-----3-3------------------------5------6-|
|--1----1-----1-1----0-(0)--0-0----------3------4-|
|
|  S  S S  S  E    S S +S   E    S      +Q
|--------------------------19---19tr20-(19tr20)---|
|----11------11-----------------------------------|
|----12------12------------16---16----------------|
|-10------10------10-9-(9)-19---19----------------|
|--------------------------21---21----------------|
|-------------------------------------------------|
|-------------------------------------------------|


  E5         F#5      G5       G#5
   E    S  S  E  S  S  E     S  S  +S   E.
|--------------------------------------------|
|--------------------------------------------|
|--------------------------------------------|
|--------------------------------------------|
|--------------------------------------------|
|--7----------9-------10-------11-(11)-11----|
|--5----0--0--7--0--0--8-----0--9--(9)--9----|
|
|  S  S S  S  E  S  S  S  S  S  S   S   E  S
|---------------------18-------19------19----|
|--------------------------------------------|
|----12------14------------------------------|
|----14------13-------20-------21------21----|
|------------------18----19-18-21------21----|
|-12------12----17---------------------------|
|--------------------------------------------|


     A5                           B5
   S  E.  E.  E.       E  S  E.    E        E       Q                Q  Q
|-------------------------------|-------------------------------------------||
|-------------------------------|-------------------------------------------||
|-------------------------------|-------------------------------------------||
|-------------------------------|-------------------------------------------||
|-------------------------------|-------------------------------------------||
|----12--12--12-------12----12--|-14\-------------------------------12s=7\--||
|----10--10--10-------10----10--|-12\---------------------------------------||
|
|  S  E.  E.  S   +E   E.    E.    T  T T T T T T T T T T T T T T T  H
|-----8---8---8---(8)--8-----8--|--7----------------------------------------||
|----10--10--10--(10)-10----10--|--7----------------------------------------||
|-------------------------------|-------------------------------------------||
|----10--10--10--(10)-10----10--|--9--7-5-----------------------------------||
|-10----------------------------|---------8-7-5-----------------------------||
|-------------------------------|---------------8-7-5-----------------------||
|-------------------------------|---------------------8-6-5-3-1-0-----------||


  E5
  Gtr I
  W
  |
  /

  Gtr II
  S S S  S S  S S  S S S  S S  S  S S  S
|--------------------------------12------|
|----------------------------------------|
|----------9h10p9----9------9h10----9h10-|
|-----9h10--------10---9h10--------------|
|-7h8------------------------------------|
|----------------------------------------|
|----------------------------------------|


  D5
   W
   |
   /

   S S  S S S  S S S S  S S S S S  S S
|-10------7h8-10-8-7-8------7----------|
|--------------------------------------|
|----9h10--------------10-9---9-7------|
|---------------------------------10-9-|
|--------------------------------------|
|--------------------------------------|
|--------------------------------------|


  A5
  W
  |
  /

  S S S  S S  S S  S S S  S S  S  S  S  S
|--------------------------------------15s|
|--------------------------------12h13----|
|----------9h10p9----9------9h10----------|
|-----9h10--------10---9h10---------------|
|-7h8-------------------------------------|
|-----------------------------------------|
|-----------------------------------------|


  F5
   W
   |
   /

   S  S  S  S  S  S  S  S  S  S  S S  S  S  S S
|-17-------15-----------------------------------|
|----15-13----13-12----15-13--------------------|
|-------------------14-------12s10-9----12------|
|------------------------------------12----10-9-|
|-----------------------------------------------|
|-----------------------------------------------|
|-----------------------------------------------|


  E5
  W
  |
  /

  S S S  S S  S S  S S S  S S  S  S S  S
|--------------------------------12------|
|----------------------------------------|
|----------9h10p9----9------9h10----9h10-|
|-----9h10--------10---9h10--------------|
|-7h8------------------------------------|
|----------------------------------------|
|----------------------------------------|


  D5
   W
   |
   /

   S S  S S S  S S S S  S S S S S  S S
|-10------7h8-10-8-7-8------7------------|
|----------------------------------------|
|----9h10--------------10-9---9-7--------|
|---------------------------------10-9---|
|----------------------------------------|
|----------------------------------------|
|----------------------------------------|


  A5
  W
  |
  /
[ Tab from: http://www.guitaretab.com/d/dream-theater/37893.html ]
  S S S  S S  S S  S S S  S S  S  S  S  S
|--------------------------------------15-|
|--------------------------------12h13----|
|----------9h10p9----9------9h10----------|
|-----9h10--------10---9h10---------------|
|-7h8-------------------------------------|
|-----------------------------------------|
|-----------------------------------------|


  F5
   W
   |
   /

   |--3--|  |--3--|  |--3--|  |--3--|  |--3--|  |--3--|  |--3--|  |--3--|
   S  S  S  S  S  S  S  S  S  S  S  S  S  S  S  S  S  S  S  S  S  S  S  S
|-17p12----17----12-19p12----19----12-20p15----20----15-22p15----22----15-|
|-------15----15----------15----15----------18----18----------18----18----|
|-------------------------------------------------------------------------|
|-------------------------------------------------------------------------|
|-------------------------------------------------------------------------|
|-------------------------------------------------------------------------|
|-------------------------------------------------------------------------|


  E5
   W
   |
   /

   |--3--|  |--3--|  |--3--|  |--3--|  |--3--|  |--3--|  |--3--|  |--3--|
   S  S  S  S  S  S  S  S  S  S  S  S  S  S  S  S  S  S  S  S  S  S  S  S
|-24p19----24----19-24p19----------19-24p19----24----19-24p19----------19-|
|-------22----22----------22----22----------22----22----------22----22----|
|----------------------------21----------------------------------21-------|
|-------------------------------------------------------------------------|
|-------------------------------------------------------------------------|
|-------------------------------------------------------------------------|
|-------------------------------------------------------------------------|


  G5
   W
   |
   /

   |-3--|  |-3--|  |-3--| |-3--|  |-3--| |-3--|  |-3--| |-3-|
   S S  S  S  S S  S S  S S  S S  S S  S S  S S  S S  S S S S
|-12p7----12----7-12p7---------7-12p7--------------------------|
|------10----10--------10---10--------10---10------------------|
|-------------------------9--------------9----9----9------9----|
|-----------------------------------------------12---10-9---9--|
|--------------------------------------------------------------|
|--------------------------------------------------------------|
|--------------------------------------------------------------|


  A5
  Gtr I
  Q   H    E S S   +S  S S S H    E E   +Q    H    E S S   +S  S S S H    E  E
|----------------|--------------------|------------------|---------------------|
|----------------|--------------------|------------------|---------------------|
|----------------|--------------------|------------------|------------------14-|
|-7\-------------|--------------------|------------------|------------------14-|
|-7\---------7-7-|-(7)-7-7----------7-|-(7)\---------7-7-|-(7)-7-7----------12-|
|-5\---------5-5-|-(5)-5-5----------5-|-(5)\---------5-5-|-(5)-5-5-------------|
|----------------|--------------------|------------------|---------------------|


   +Q    H    E  S  S    +S   S  S S H    E  E
|---------------------|------------------------|
|---------------------|------------------------|
|-(14)\---------14-14-|-(14)-14-14----------14-|
|-(14)\---------14-14-|-(14)-14-14----------14-|
|-(12)\---------12-12-|-(12)-12-12----------12-|
|---------------------|------------------------|
|---------------------|------------------------|


                       3/4
   +Q    H    E  S  S    +S   S  S S H
|---------------------|-------------------||
|---------------------|-------------------||
|-(14)\---------14-14-|-(14)-14-14--------||
|-(14)\---------14-14-|-(14)-14-14--------||
|-(12)\---------12-12-|-(12)-12-12--------||
|---------------------|-------------------||
|---------------------|-------------------||


  E5
 4/4
  E S S E S S +S  S E S S S S   E S S E S S +S  S E S S S S
|-----------------------------|-----------------------------|
|-----------------------------|-----------------------------|
|-----------------------------|-----------------------------|
|-----------------------------|-----------------------------|
|-----------------------------|---------------------5-7-5-7-|
|-5-------5-7-(7)-------------|-5-------7-8-(8)-7-----------|
|---8-6-5---------8-5-6-8-6-5-|---8-6-5-----------5---------|


  E S S E S S +S  S E S S S S   S S E S E S E S S +E   S S
|-----------------------------|----------------------------|
|-----------------------------|----------------------------|
|-----------------------------|----------------------------|
|-----------------------------|-----------------------10-9-|
|-----------------------------|-----------5-7-8-7-(7)------|
|-5-------5-7-(7)-------------|---5-7----------------------|
|---8-6-5---------8-5-6-8-6-5-|-------6-5------------------|


  E  S S E S S +S  S E S  S S S   E  S S E S  S  +S  S E S S S S
|-------------------------------|---------------------------------|
|-------------------------------|---------------------------------|
|-------------------------------|------------------------7-9-7-9--|
|-7--------7-9-(9)-7------------|-7--------9-10-(10)-9------------|
|---10-8-7-----------7-8-10-8-7-|---10-8-7-------------7----------|
|-------------------------------|---------------------------------|
|-------------------------------|---------------------------------|


                                                   ~~~~~~
  E  S S E S S +S  S E S  S S S   S S E S E S E  S S +E  S S
|-------------------------------|----------------------------||
|-------------------------------|----------------------------||
|-------------------------------|-----------7-9-10-9-(9)-----||
|-7--------7-9-(9)-7------------|---7-9----------------------||
|---10-8-7-----------7-8-10-8-7-|-------8-7------------------||
|-------------------------------|------------------------8-7-||
|-------------------------------|----------------------------||


                                      1.,2.
    Em
    S S S S S S S S S S S S S S S S   S S S S S S S S S S S S S S S S
||----------------------------------|----------------------------------||
||----------------------------------|----------------------------------||
||o---------------------------------|---------------------------------o||
||----------------------------------|----------------------------------||
||o---------------------------------|---------------------------------o||
||--5-0-3-1-0-0-5-7-0-3-0-0-1-3-1-0-|-5-0-3-1-0-0-5-7-0-3-0-0-1-3-1-0--||
||----------------------------------|----------------------------------||


  3.
   S S S S S S S S S S S S  S  S  S  S
|-----------------------------------------|
|-----------------------------------------|
|-----------------------------------------|
|-----------------------------------------|
|-----------------------------------------|
|--5-0-3-1-0-0-7-8-0-3-0-0-10-12-10-12----|
|-----------------------------------------|


  S S S S S S S S S S S S S S S S   S S S S S S  S  S S  S  S S S S S S
|---------------------------------|-------------------------------------|
|---------------------------------|-------------------------------------|
|---------------------------------|-------------------------------------|
|---------------------------------|-------------------------------------|
|---------------------------------|-------------------------------8-7---|
|-5-0-3-1-0-0-5-7-0-3-0-0-1-3-1-0-|-0-5-7-0-3-0-10-12-0-13-12-0-0-----0-|
|---------------------------------|-------------------------------------|


    Dm              Am
    S S S S S S S S S S S S S S S S
||----------------------------------|
||----------------------------------|
||o---------------------------------|
||----------------------------------|
||o-5-0-3-2-0-0-5-7-0-3-0-0-2-3-2-0-|
||----------------------------------|
||----------------------------------|


  1.,2.                               3.
  Dm              Am                  Dm              Am
  S S S S S S S S S S S S S S S S     S S S S S S S S S S S S S S S S
|----------------------------------||---------------------------------|
|----------------------------------||---------------------------------|
|---------------------------------o||---------------------------------|
|----------------------------------||---------------7-5---5-----------|
|-5-0-3-2-0-0-5-7-0-3-0-0-2-3-2-0-o||-5-0-3-2-0-0-5-----7---7-5-7-5---|
|----------------------------------||-------------------------------8-|
|----------------------------------||---------------------------------|


  Dm              Am                Dm              Am
  S S S S S S S S S S S S S S S S   S S S S S S S S S S S S S S S S
|---------------------------------|---------------------------------|
|---------------------------------|---------------------------------|
|---------------------------------|---------------------------------|
|---------------------------------|---------------7---5-------------|
|-5-0-3-2-0-0-5-7-0-3-0-0-2-3-2-0-|-5-0-3-2-0-0-5---------7---3-2-0-|
|---------------------------------|---------------------------------|
|---------------------------------|---------------------------------|


  Dm              Am                Dm              Am
  S S S S S S S S S S S S S S S S   S S S S S S S S S S S S S S S S
|---------------------------------|---------------------------------|
|---------------------------------|---------------------------------|
|---------------------------------|---------------------------------|
|---------------------------------|---------------------------------|
|-5-0-3-2-0-0-5-7-0-3-0-0-2-3-2-0-|-7-0-5-3-0-0-7-8-0-5-0-0-3-5-3-0-|
|---------------------------------|---------------------------------|
|---------------------------------|---------------------------------|


  Dm               Am                Dm                 Am
  S S S S S S S  S S S S S S S S S    S S S S S S  S  S S S S S S S S S
|----------------------------------|------------------------------------|
|----------------------------------|------------------------------------|
|----------------------------------|------------------------------------|
|----------------------------------|------------------------------------|
|-8-0-7-5-0-0-8-10-0-7-0-0-5-7-5-0-|-10-0-8-7-0-0-10-12-0-8-0-0-7-8-7-0-|
|----------------------------------|------------------------------------|
|----------------------------------|------------------------------------|


 3/4                             2/4
   S S  S S S S  S  S S  S  S S   S  S  S S  S  S S S
|-------------------------------|---------------------|
|-------------------------------|---------------------|
|-------------------------------|---------------------|
|-------------------------------|---------------------|
|-12-0-10-8-0-0-12-14-0-12-10-0-|-0-14-15-0-14-12-0-0-|
|-------------------------------|---------------------|
|-------------------------------|---------------------|


 3/8
   S  S S  S  S S   S  S  S S  S  S   S  S  S S  S  S
|-----------------|-----------------|------------------|
|-----------------|-----------------|------------------|
|-----------------|-----------------|------------------|
|-----------------|-----------------|------------------|
|-15-17-0-15-14-0-|-0-17-19-0-17-15-|-0-19-20-0-19-17--|
|-----------------|-----------------|------------------|
|-----------------|-----------------|------------------|


 2/4                    3/4
  S  S  S S  S  S S  S    S S  S  S S  S  S S  S  S S  S
|----------------------|---------------------------------|
|----------------------|---------------------------------|
|----------------------|---------------------------------|
|----------------------|---------------------------------|
|-0-20-22-0-20-19-0-22-|-24-0-22-24-0-22-24-0-22-24-0-22-|
|----------------------|---------------------------------|
|----------------------|---------------------------------|


  E
 4/4                                   5/4
  S S S S S S S S S  S S S  S  S S  S    S  S  S  S  S  E.     +H.
|-------------------------------------|-------------13-12tr13-(12tr13)----||
|-------------------------------------|-13-12-12-13-----------------------||
|-----------------------------10-9-10-|-----------------------------------||
|-------------------10-9-9-10---------|-----------------------------------||
|-------------8-7-8-------------------|-----------------------------------||
|-----8-7-7-8-------------------------|-----------------------------------||
|-5-6---------------------------------|-----------------------------------||


 5/16                        7/16               5/16
   S S  S S S    S S  S S S    S S  S S  S S S    S S  S S S
|-------------|-------------|------------------|-------------|
|-------------|-------------|------------------|-------------|
|-------------|-------------|------------------|-------------|
|-------------|-------------|------------------|-------------|
|-12-0-12-0-0-|-12-0-12-0-0-|-12-0-12-0-12-0-0-|-12-0-12-0-0-|
|-------------|-------------|------------------|-------------|
|-------------|-------------|------------------|-------------|


 7/16               5/16                        7/16
   S S  S S  S S S    S S  S S S    S S  S S S    S S  S S  S S S
|------------------|-17---17-----|-17---17-----|-17---17---17-----|
|------------------|-------------|-------------|------------------|
|-14---14---14-----|-14---14-----|-14---14-----|-14---14---14-----|
|------------------|-------------|-------------|------------------|
|-12-0-12-0-12-0-0-|-12-0-12-0-0-|-12-0-12-0-0-|-12-0-12-0-12-0-0-|
|------------------|-------------|-------------|------------------|
|------------------|-------------|-------------|------------------|
|
| Gtr II
|  W                  W             W             W
|------------------|-------------|-------------|------------------|
|------------------|-------------|-------------|------------------|
|------------------|-------------|-------------|------------------|
|------------------|-------------|-------------|------------------|
|------------------|-------------|-------------|------------------|
|------------------|-------------|-------------|------------------|
|------------------|-------------|-------------|------------------|


  N.C.
 5/4
   S  S  S  S  S  S  S  S  S  S  S S  S  S  S S  S  S  S S
|--5-------------------------------------------------------||
|-----5--6--8--6--5----------------------------------------||
|--------------------7--5--7--4----------------------------||
|--------------------------------7-------5-----------------||
|----------------------------------7--8-----8-7--5-----5---||
|---------------------------------------------------8----7-||
|----------------------------------------------------------||
|
|  S  S  S  S  S  S  S  S  S  S  S S  S  S  S S  S  S  S S
|-17-12-13-15-13-12----------------------------------------||
|-------------------15-13-15-12----------------------------||
|-------------------------------14-9-10-12-10-9------------||
|-----------------------------------------------12-10-12-9-||
|----------------------------------------------------------||
|----------------------------------------------------------||
|----------------------------------------------------------||


  G5                               Ab5
 4/4
   S  S  S  S  S  S  S  S  S  S  S  S  S  S  S  S
|-------------------------------------------------|
|-------------------13-15-13----------------------|
|-------------12-13----------13-12-10-------------|
|-------10-12-------------------------12-10-------|
|-10-11-------------------------------------13-11-|
|-------------------------------------------------|
|-------------------------------------------------|


  G5                               F5
 7/8
   S  S  S  S  S  S  S  S  S  S  S  S  T  T  T  T
|--------------------------------------------------|
|-------------------13-15-13-----------------------|
|-------------12-13----------13-12-10--------------|
|-------10-12-------------------------12-10--------|
|-10-11-------------------------------------13-11--|
|--------------------------------------------------|
|--------------------------------------------------|


  E5
 3/4
   S  S  S  S  S  S  S  S  S  S  S  S
|-------------------------------------|
|-------------------13-15-13----------|
|-------------12-13----------13-12-10-|
|-------10-12-------------------------|
|-10-11-------------------------------|
|-------------------------------------|
|-------------------------------------|


  C5                F#5
                           |--3--|  |--3--|
   S  S  S  S  S  S  S  S  S  S  S  S  S  S
|-------------------------------------------|
|-------------------------------------------|
|-------------------------15-13-11----------|
|-14-12-------16-14-------------------------|
|-------13-11-------15-13----------15-13-11-|
|-------------------------------------------|
|-------------------------------------------|


  G5                               Ab5
 4/4
   S  S  S  S  S  S  S  S  S  S  S  S  S  S  S  S
|-------------------------------------------------|
|-------------------13-15-13----------------------|
|-------------12-13----------13-12-10-------------|
|-------10-12-------------------------12-10-------|
|-10-11-------------------------------------13-11-|
|-------------------------------------------------|
|-------------------------------------------------|


  G5                               F5
 7/8
   S  S  S  S  S  S  S  S  S  S  S  S  T  T  T  T
|--------------------------------------------------|
|-------------------13-15-13-----------------------|
|-------------12-13----------13-12-10--------------|
|-------10-12-------------------------12-10--------|
|-10-11-------------------------------------13-11--|
|--------------------------------------------------|
|--------------------------------------------------|


 15/8                                        9/8
                ~~~~~~   ~~~~~~
   E  E E  E  E E +E   E E +E   E  E E  E E   +E   E  E  +E  E  E  E  E  E
|-------------------------------------------|------------------------------|
|-------------------------------------------|------------------------------|
|---------10----9-(9)-10-9-(9)--------------|------------------------10-12-|
|-------9----12----------------12-10-9-10---|----------------9-11-13-------|
|-10-12-----------------------------------8-|-(8)-10-12-(12)---------------|
|-------------------------------------------|------------------------------|
|-------------------------------------------|------------------------------|


 15/8
               ~~~~~~   ~~~~~~
  E  E E  E  E E +E   E E +E   E  E E  E E
|------------------------------------------|
|------------------------------------------|
|--------10----9-(9)-10-9-(9)--------------|
|------9----12----------------12-10-9-10---|
|---12-----------------------------------8-|
|------------------------------------------|
|------------------------------------------|


  E  E  E  E  E  E  E  E  E  E  E  E  E  E  E
|---15-13-11-----------------------------------|
|------------12-14-12--------------------------|
|---------------------14-12-------15-----------|
|---------------------------12-13----13-11-----|
|------------------------------------------11--|
|----------------------------------------------|
|----------------------------------------------|


                                            9/8
               ~~~~~~   ~~~~~~
  E  E E  E  E E +E   E E +E   E  E E  E E   +E   E  E  +E  E  E  E  E  E
|------------------------------------------|------------------------------|
|------------------------------------------|------------------------------|
|--------10----9-(9)-10-9-(9)--------------|------------------------10-12-|
|------9----12----------------12-10-9-10---|----------------9-11-13-------|
|---12-----------------------------------8-|-(8)-10-12-(12)---------------|
|-0----------------------------------------|------------------------------|
|------------------------------------------|------------------------------|


 15/8
               ~~~~~~   ~~~~~~
  E  E E  E  E E +E   E E +E   E  E E  E E
|------------------------------------------|
|------------------------------------------|
|--------10----9-(9)-10-9-(9)--------------|
|------9----12----------------12-10-9-10---|
|---12-----------------------------------8-|
|------------------------------------------|
|------------------------------------------|


  E  E  E  E  E  E  E  E  E  E  E  E  E  E  E
|---15-13-11-----------------------------------|
|------------12-14-12--------------------------|
|---------------------14-12-------15-----------|
|---------------------------12-13----13-11-----|
|------------------------------------------11--|
|----------------------------------------------|
|----------------------------------------------|


                   ~~~~~~~    ~~~~~~~    ~~~~~~~
    E  E  E  E  E  E  +E   E  E  +E   E  E  +E   E  E
||----------------------------------------------------|
||----------------------------------------------------|
||o---------------------------------------------------|
||----------------------------------------------------|
||o---------18----17-(17)------------14-15-(15)-------|
||--0-14-16----16---------18-19-(19)------------16-17-|
||----------------------------------------------------|


 9/8                           11/8
                 ~~~~~~~    ~~~~~~~~~
  E  E  E  E  E  E  +E   E  E    +E   E  E  E  E  E  E  E  E  E  E
|-----------------------------|--------------------------------------||
|-----------------------------|--------------------------------------||
|-----------------------------|-------------------------------------o||
|-----------------------------|------------------14-15-17-18-14-15---||
|---------18----17-(17)-------|------14-15-16-17--------------------o||
|---14-16----16---------18-19-|-(19)---------------------------------||
|-----------------------------|--------------------------------------||


  N.C.
 3/4
  S  S  S  S  S  S  S  S  S  S  S  S
|------------------------------------|
|------------------------------------|
|------------------------------------|
|------------------------------------|
|---------18----17-------14-15-------|
|-0-14-16----16----18-19-------16-17-|
|------------------------------------|


 4/4
  S  S  S  S  S  S  S  S  S  S  S  S  S  S  S  S
|------------------------------------------------|
|------------------------------------------------|
|------------------------------------------------|
|------------------------------------------------|
|---------18----17-------14-15-------13-14-------|
|-0-14-16----16----18-19-------16-17-------15-16-|
|------------------------------------------------|


 3/4
  S  S  S  S  S  S  S  S  S  S  S  S
|------------------------------------|
|------------------------------------|
|------------------------------------|
|------------------------------------|
|---------18----17-------14-15-------|
|-0-14-16----16----18-19-------16-17-|
|------------------------------------|


 4/4
  S  S  S  S  S  S  S  S  S  S  S  S  S  S  S  S
|------------------------------------------------|
|------------------------------------------------|
|------------------------------------------------|
|------------------------------------14-16-17-18-|
|---------18----17-------14-15-16-17-------------|
|-0-14-16----16----18-19-------------------------|
|------------------------------------------------|


 3/4                                  5/8
  S  S  S  S  S  S  S  S  S  S  S  S   S  S  S  S  S  S  S  S  S  S
|------------------------------------|------------------------------|
|------------------------------------|------------------------------|
|------------------------------------|------------------------------|
|------------------------------------|------------------------------|
|---------18----17-------14-15-------|---------18----17-14-15-------|
|-0-14-16----16----18-19-------16-17-|-0-14-16----16----------16-17-|
|------------------------------------|------------------------------|


 3/4
  S  S  S  S  S  S  S  S  S  S  S  S
|------------------------------------|
|------------------------------------|
|------------------------------------|
|------------------------------------|
|---------18----17-------14-15-------|
|-0-14-16----16----18-19-------16-17-|
|------------------------------------|


 7/8
  S  S  S  S  S  S  S  S  S  S  S  S  S  S
|------------------------------------------|
|------------------------------------------|
|------------------------------------------|
|------------------------------------------|
|---------18----17-14-15-------13-14-------|
|-0-14-16----16----------16-17-------15-16-|
|------------------------------------------|


 5/16                                            6/16
   S  S  S  S S    S  S  S  S S    S  S  S  S S    S  S  S  S  S  S
|---------------|---------------|---------------|-------------------|
|---------------|---------------|---------------|-------------------|
|---------------|---------------|---------------|-------------------|
|---------------|---------------|---------------|-------------------|
|---------------|---------------|---------------|----------14-16-17-|
|-19-16-18-16-0-|-19-16-18-16-0-|-19-16-18-16-0-|-15-16-18----------|
|---------------|---------------|---------------|-------------------|


 3/4                       4/4
  PM------------------------------------------------------|
  S S S S S S S S S S S S   S S S S S S S S S S S S S S S S
|-------------------------|---------------------------------|
|-------------------------|---------------------------------|
|-------------------------|---------------------------------|
|-------------------------|---------------------------------|
|-------6---5-----2-3-----|-------6---5-----2-3-----1-2-----|
|-0-2-4---4---6-7-----4-5-|-0-2-4---4---6-7-----4-5-----3-4-|
|-------------------------|---------------------------------|


 3/4                       4/4
  PM------------------------------------------------------|
  S S S S S S S S S S S S   S S S S S S S S S S S S S S S S
|-------------------------|---------------------------------|
|-------------------------|---------------------------------|
|-------------------------|---------------------------------|
|-------------------------|-------------------------2-4-5-6-|
|-------6---5-----2-3-----|-------6---5-----2-3-4-5---------|
|-0-2-4---4---6-7-----4-5-|-0-2-4---4---6-7-----------------|
|-------------------------|---------------------------------|


 3/4                       5/8
  PM------------------------------------------|
  S S S S S S S S S S S S   S S S S S S S S S S
|-------------------------|---------------------|
|-------------------------|---------------------|
|-------------------------|---------------------|
|-------------------------|---------------------|
|-------6---5-----2-3-----|-------6---5-2-3-----|
|-0-2-4---4---6-7-----4-5-|-0-2-4---4-------4-5-|
|-------------------------|---------------------|


 3/4                       7/8
  PM--------------------------------------------------|
  S S S S S S S S S S S S   S S S S S S S S S S S S S S
|-------------------------|-----------------------------|
|-------------------------|-----------------------------|
|-------------------------|-----------------------------|
|-------------------------|-----------------------------|
|-------6---5-----2-3-----|-------6---5-2-3-----1-2-----|
|-0-2-4---4---6-7-----4-5-|-0-2-4---4-------4-5-----3-4-|
|-------------------------|-----------------------------|


  E
 5/16                                6/16
  S S S S S   S S S S S   S S S S S   S S S S S S
|-----------|-----------|-----------|-------------|
|-----------|-----------|-----------|-------------|
|-----------|-----------|-----------|-------------|
|-----------|-----------|-----------|-------------|
|-----------|-----------|-----------|-------2-4-5-|
|-7-4-6-4-0-|-7-4-6-4-0-|-7-4-6-4-0-|-3-4-6-------|
|-----------|-----------|-----------|-------------|


 5/16
  S S S S S   S S S S S   S S S S S   S S S S S
|-----------|-----------|-----------|-----------|
|-----------|-----------|-----------|-----------|
|-----------|-----------|-----------|-----------|
|-----------|-----------|-----------|-------2-4-|
|-7-4-6-4-0-|-7-4-6-4-0-|-7-4-6-4-0-|-3-4-6-----|
|-----------|-----------|-----------|-----------|
|-----------|-----------|-----------|-----------|


  C
             7/16            5/16        6/16
  S S S S S   S S S S S S S   S S S S S   S S S S S S
|-----------|---------------|-----------|-------------|
|-----------|---------------|-----------|-------------|
|-----------|---------------|-----------|-------2-3-5-|
|-5-2-4-2---|-5-2-4-2-4-2---|-5-2-4-2---|-2-4-5-------|
|---------3-|-------------3-|---------3-|-------------|
|-----------|---------------|-----------|-------------|
|-----------|---------------|-----------|-------------|


  Fm
 5/16                                7/16
  S S S S S   S S S S S   S S S S S   S S S S S S S
|-----------|-----------|-----------|---------------|
|-----------|-----------|-----------|---------------|
|-6-3-5-----|-6-3-5-----|-6-3-5-----|---------------|
|-------6-3-|-------6-3-|-------6-3-|-5-6-5-3-------|
|-----------|-----------|-----------|---------6-4-3-|
|-----------|-----------|-----------|---------------|
|-----------|-----------|-----------|---------------|


  B                                   C#
 6/4                                 6/8
  E. E S E E E E. E S T T S S S S S   E. E S E E E
|-----------------------------------|--------------|
|-----------------------------------|--------------|
|-----------------------------------|--------------|
|----4---3--------4---3h4p3---------|----6---4-3---|
|-2----2---6-4-2----2-------6-4-2---|-4----4-----6-|
|---------------------------------4-|--------------|
|-----------------------------------|--------------|


                             A
 7/8                        6/4
  E. E S T T S S S S S S S   E. E S E E E E. E S S S S S S S
|--------------------------|---------------------------------|
|--------------------------|---------------------------------|
|--------------------------|---------------------------------|
|----6---4h6p4-3-----------|---------------------------------|
|-4----4---------6-4-2-4-6-|----7---6--------7---9-7-6-------|
|--------------------------|-5----5---9-7-5----5-------9-7-5-|
|--------------------------|---------------------------------|


                        H.=H
  F#                                  E5         B5
 9/8                   3/4           5/8        3/4
                                         PM--|
  E. E S E E E E. E S   E E E E E E   Q  E E E   q  q  q
|---------------------|-------------|----------|----------*|
|---------------------|-------------|----------|----------*|
|---------------------|-------------|----------|-4--4--4--*|
|---------------------|-------------|----2-2-2-|-4--4--4--*|
|----4---3--------4---|-6-4-3-------|----2-2-2-|-2--2--2--*|
|-2----2---6-4-2----2-|-------6-4-2-|-0--0-0-0-|----------*|
|---------------------|-------------|----------|----------*|


Duration Legend
---------------
W - whole; H - half; Q - quarter; E - 8th; S - 16th; T - 32nd; X - 64th; a - acciaccatura
+ - note tied to previous; . - note dotted; .. - note double dotted
Uncapitalized letters represent notes that are staccato (1/2 duration)
Irregular groupings are notated above the duration line
Duration letters will always appear directly above the note/fret number it represents the
duration for.  Duration letters with no fret number below them represent rests.  Multi-
bar rests are notated in the form Wxn, where n is the number of bars to rest for.  Low
melody durations appear below the staff

Tablature Legend
----------------
 h   - hammer-on
 p   - pull-off
 b   - bend
 pb  - pre-bend
 r   - bend release (if no number after the r, then release immediately)
 /\  - slide into or out of (from/to "nowhere")
 s   - legato slide
 S   - shift slide
  - natural harmonic
[n]  - artificial harmonic
n(n) - tapped harmonic
 ~   - vibrato
 tr  - trill
 T   - tap
 TP  - trem. picking
 PM  - palm muting
\n/  - tremolo bar dip; n = amount to dip
 \n  - tremolo bar down
 n/  - tremolo bar up
/n\  - tremolo bar inverted dip
 =   - hold bend; also acts as connecting device for hammers/pulls
 <>  - volume swell (louder/softer)
 x   - on rhythm slash represents muted slash
 o   - on rhythm slash represents single note slash

Misc Legend
-----------
 |  - bar
||  - double bar
||o - repeat start
o|| - repeat end
*|  - double bar (ending)
 :  - bar (freetime)
 $  - Segno
 &  - Coda
Tempo markers -  = BPM(8/16=s8/s16), where s8 = swing 8ths, s16 = swing 16ths
Related for The Dance Of Eternity tab