Song name
# A B C D E F G H I J K L M N O P Q R S T U V W X Y Z

Dream Theater - Silent Man tab



Theater - The Silent Man
from Awake

1. A question well served,      "Is
2. Has man been a victim of his
Gtr.1 12 string acoustic
||---------3----------3---------2---|-----------2-------------2-----------|
||---------3----------3---------3---|-----------3-------------3-----------|
||o--------0----------0---------2---|-----------2---------2---2-----------|
||o--------0----------0----0----0---|----0------0---------2---0---0---0---|
||-------------------------0----0---|----0------0---------0-------0---0---|
||----3----------3------------------|-------------------------------------|

silence like a fever?
woman, of his 
voice never heard?"           "Or a
If he elects not to bother,     will he
w/fill 1
|-------3----0---------------2---|-----------2----------2-----------------|
|-------3----3---------------3---|-----------3----------3----3----0-------|
|-------0----0---------------2---|-----------2----------2----2----0-------|
|-------0----0----------0----0---|-----------0------0---0----0------------|
|-------x-----------0---0----0---|------0-----------0---------------------|
|--3----3------------------------|----------------------------------------|
Fill 1
|-------3---3---3----------------2--|-------------------------------------|
|-------3---3---3--3---3---------3--|-------3---------------3--x--x-------|
|-------0---0---0--0---0---------2--|-------2---------------0--x--x-------|
|-------0---0------0---x---x--x--0--|-------0-----------4---4--x--x-------|
|------------------2---3---x--x--0--|---0-------0---5-------5--x--x-------|
|---3-------------------------------|-------------------------------------|

message with no receiver?"                   
suffocate their faith?                       
                                   Thumb

Pray they won't ask.                                  Be  -
Desperate to fall                                     Be  -
|--0---------0----------0----0---x--|--0----------0---------0-------------|
|--0---------0----------0----0---x--|--1----------1---------1---1----1----|
|--0---------0----------0----0---x--|--0----------0---------0---0----0----|
|--2---------4----------2----2------|--2----2----------2----2---2----2----|
|--2---------2----------------------|--0----0----------0----0-------------|
|--0----0----------0----------------|-------------------------------------|

hind the stained glass
hind the Great Wall
|--0-----------------------------0--|--0-------0---------0---0---0--------|
|--1/3---------3------------3----0--|--0-------0---------0---0---0--------|
|--0-----------0------------0-------|--0-------0---------0---0------------|
|--2/4----4----4------------4-------|--2-------4---------4----------------|
|--0------0--------------0----------|--2-------2---------2----------------|
|-----------------------------------|--0---0--------0---------------------|

there's always one more mask.
that separates us all.
|-----------------------------------|------------------------------------||
|--3---------3---------3----x----x--|---7---------------7----------------||
|--0---------0---------0----x----x--|---7---------------7---------------o||
|--4---------4---------4----x----x--|---7---------------7---------------o||
|--3----3---------3----3----x----x--|---x---------------x----------------||
|-----------------------------------|---8------8--------8----------------||

Chorus
When there is reason, Tonight I'm awake
                  (Tonight I'm awake)
let 
                 When there's no answer.            Arrive
(The Silent Man)
|---0------------|--------0--------0----------|---------------------------|
|---0------------|-----0--------0---------0---|---------------------------|
|---8------------|--1--------1---------4------|---2-----------------------|
|---9------------|----------------------------|---------------------------|
|----------------|----------------------------|---------------------------|
|----------------|----------------------------|---------------------------|

the silent man.                             If there is bal - 
|-----------0------------0--|-(0)------------|-------0--------0-----------|
|--------0------------0-----|----------------|----0--------0--------0-----|
|-----6------------8--------|----------------|-1--------1--------1--------|
|--7------------9-----------|----------------|----------------------------|
|---------------------------|----------------|----------------------------|
|---------------------------|----------------|----------------------------|

ance         tonight   he's awake
       (Tonight he's awake)           (The Silent man)
|--------0--------0-------0--|-------0--------0-----0-|-------0-------0---0|
|-----0--------0----------0--|----0--------0----------|----0-------0-------|
|--2--------2---------2------|-6--------6--------6----|-8-------8-------8--|
|----------------------------|------------------------|--------------------|
|----------------------------|------------------------|--------------------|
|----------------------------|------------------------|--------------------|

If they have to suffer                          there lies
|-------0--------0--------|-------0--------0-----0------------------------|
|----0--------0--------0--|----0--------0--------0------------------------|
|-1--------2--------4-----|-2--------2--------2---------------------------|
|-------------------------|-----------------------------------------------|
|-------------------------|-----------------------------------------------|
|-------------------------|-----------------------------------------------|

the silent 
Solo
|-------------------------------|------------------------------------------
|--------------8--7h8p7---------|------------10------12-----10-------------
|--------7--9------------9--7~--|---7--9/11------11------11-----11\9p7-----
|--7--9-------------------------|--------------------------------------9---
|-------------------------------|------------------------------------------
|-------------------------------|------------------------------------------
 
 
--------|-------------------9--7h9p7--5--------|--------------------------|
--------|----------------------------------8---|-------6---6--------------|
---7h9--|--(9)~------6-------------------------|-----5h7---5--------------|
--------|---------------7----------------------|---------------7\5p3\2----|
--------|--------------------------------------|--------------------------|
--------|--------------------------------------|--------------------------|
Sin without deceivers,   a God with no believers
|-------------------------|------------------------|-----------------------
|-------------------------|----------1-------------|------3-----------7----
|-----------0-------------|-------0--------0-------|---------0----------0--
|--------4-------4--------|----2--------------2----|-2/4----------4/7-----7
|-----2-------------2-----|-0-----------0--------0-|------------0---------|
|--0-------------------0--|------------------------|-----------------------

I could sail by on the winds
|----------------------------------|----------0---------------------------|
|----------8--------7\5---------3--|----------3---3------3----------------|
|----------------------------------|-------0------0------0----------------|
|-----7/9-----9\7---7\5---2/4------|----4----------------4----------------|
|----------------------------------|-3------------------------------------|
|--0-------------------------------|--------------------------------------|

of silence and maybe they won't notice    But this
|---------------------x--x--|---------0-------0--x--x-|-0-----0-------0---|
|-----------7-----7---x--x--|---------0-------0--x--x-|-0-----0-------0---|
|--------7--7-----7---x--x--|---------6-------6-------|-0-----0-------0---|
|-----7-----7-----7---------|-------------------------|-2-----2-------2---|
|---------------------------|-9-----------9-----------|-2-----------------|
|--8--------------8---------|-7---7-------7-----------|-0--0------0-------|

time, I think it'd be better if I swim.
|-------------------------|---0h2-----------|---(2)-----------------------|
|--3---------3---------3--|---3-------------|---(3)-----------------------|
|--0---------0---------0--|---2-------------|---(2)-----------------------|
|--2---------2---------2--|---0-------------|---(0)-----------------------|
|--3----3---------3-------|-----------------|-----------------------------|
|-------------------------|-----------------|-----------------------------|

The silent man.  There lies
|--0---0--0---0----0--0--0--0---|-------------------0--0---0--0-----------|
|--0---0--0---0----0--0--0--0---|-10--10--10--------0--0---0--0-----------|
|--6---6--6---6----8--8--8--8---|--9---9---9--------8--8---8--8-----------|
|--7---7--7---7----9--9--9--9---|--7---7---7--------7--7---7--7-----------|
|--7---7------7----9--9-----9---|--x---x---x--------9--9---9--9-----------|
|-------------------------------|--9---9---9--------7--7---7--7-----------|

|--4----x---x----------------------------|---0----------------------------|
|--5----x---x---4----x----x----2----0----|---0----------------------------|
|--6----x---x---4----x----x----2----2----|---1----------------------------|
|--6----x---x---4----x----x----2----2----|---2----------------------------|
|--4------------2----x----x----0----x----|---2----------------------------|
|-----------------------------------2----|---0----------------------------|
=======================================================================
h = hammeron                   
p = pull off
t = tap ( right hand )
~ = vibrato
bf = bend full
rb = release bend
dive = dive with bar
x = ghost note
/\ = slide
* = picked harmonic
tr = trill
p.s. = pick scrape
b = bend/step written over note
If you have any questions mail me at  HYPERLINK "mailto:guitarboy2001@hotmail.com" guitarboy2001@hotmail.com       


*??7?8?8?8?8?8?899 9%9???????????0JmH	sH	?jU	jUmH	sH	*+,Ppq??"n?RSTj???e??IJKr??????????????????????????????%9????;	?	?	
k
l
s
?

? ? !!!!!j!?!"N"?"?"?"?"4#?#?#$d$?$?$?$?$??????????????????????????????$J%?%?%.&z&{&|&?&'`'?'?'D(E(F(R(S(?(?(7)?)?)***k*?*+O+?????????????????????????????O+?+?+?+,,f,?,?,J-?-?-?-?-..N.?.?.2/~/?/?/?/?/0L0?0?001?????????????????????????????01|1?1?1?1?1?1?2?2?2#3o3?3?3?3?3?3&4r4?4
5V5?5?5?5?5<6?6?6 
7l7m7?7?7?7?788&8;8J8U8i8t8?8?8?8 
1?h??. ??A!??"??#??$??%??D???y??????K?guitarboy2001@hotmail.com???y??????K?Bmailto:guitarboy2001@hotmail.com
i>@??>	StandaardCJ_HaJmH	sH	tHDA@???DStandaardalinea-lettertype.U@??.	Hyperlink>*B*ph?j?Oj7
?2?(?
P?x?4 ?#\'?*?.2?5@9 CJOJPJQJ^JaJmHsHTe@THTML, 
opgemaaktCJOJQJ^JaJ%5T????*+,Ppq??"n?RSTj???e??IJKr???;??kls?W??;<=k???2	~	?	
b
?
?
?
?

d ? ? ? ? J!?!?!."z"{"|"?"#`#?#?#D$E$F$R$S$?$?$7%?%?%&&&k&?&'O'?'?'?'((f(?(?(J)?)?)?)?)**N*?*?*2+~+?+?+?+?+,L,?,?,0-|-?-?-?-?-?-?.?.?.#/o/?/?/?/?/?/&0r0?0
1V1?1?1?1?1<2?2?2 

7%9!"#$%&'()%9 ?4?45%5X??#$),-/pq???RT????ef??????ILlm????;<???? klst??WX????;=????2	3	~		?	?	

b
?
?
?
?
?
ST????78??????I
J
?
?
?
?
-.yz????IJ????-.yz???	%&qr??	

 d e ? ? ? ? J!K!?!?!?!?!."/"z"|"D$F$R$T$?$?$?$?$7%8%?%?%?%?%&&?'?'((e(g(?(?(?(?(I)K)?)?)?)?)?)?)**N*O*?*?*?*?*2+3+~++?+?+?+,L,M,?,?,?,?,0-1-|-}-?-?-?-?-?.@.?.?.?.?.#/$/o/p/?/?/?/?/&0'0r0s0?0?0
11V1W1?1?1?1?1<2=2?2?2?2?2 
documenten\The Silent man 
New Roman5??Symbol3&??:?Arial?5?	?:?Courier 
Theater - The Silent Manrickrick??


<H
T`hpx?Dream Theater - The Silent 
ThickickNormalhricklh2ckMicrosoft Word 9.0 @?V?@??3??@??3????+??

en pim]?5?	Dream Theater - The Silent ManTitel? 8@_PID_HLINKS?A|>!mailto:guitarboy2001@hotmail.com

 
Entry????????	?F???P??[?Data
????????????+1Table????????3?'WordDocument????"TSummaryInformation(????????????GDocumentSummaryInformation8????????OCompObj????jObjectPool???????????????P?????P????????????????????????????????????????????????????????????????????????????????????????????????????????????????????????????????????????????????????????????????????????????????????????????????????????????????????????????????????????????????????????????????????????????????????????????????????????????????????????????????????????????????????????????????????????????????????????????????????????????????????????????????????????????????????????????????????????????????????????????????????????????????????????????????
????	?FMicrosoft Word-document
MSWordDocWord.Document.8?9?q
Tap to rate this tab
# A B C D E F G H I J K L M N O P Q R S T U V W X Y Z