Guitaretab - guitar tabs
Song name
# A B C D E F G H I J K L M N O P Q R S T U V W X Y Z

Dream Theater - Metropolis Part1 tab

      Dream Theater: Metropolis-Part I - "The Miracle and the Sleeper"

Transcribed by dm Bodnr (ytsejam@falcon.sch.bme.hu), from the official
guitar scores.

---------------------------------------------------------------------------

 intro(keyboard)          pm........
|------------------------|-------------------------|-------------------------|
|------------------------|-------------------------|-------------------------|
|------------------------|-------------------------|-------------------------|
|------------------------|-------------------------|-------------------------|
|------------------------|-------------------------|-------------------------|
|------------------------|-0-0-0-0-0---------------|-------------------------|

  pm.............                       pm...............
|-----------------|-------------------|-------------------|------------------|
|-----------------|-------------------|-------------------|------------------|
|-----------------|-------------------|-------------------|------------------|
|-----------------|-------------------|-------------------|------------------|
|-----------------|-------------------|-------------------|------------------|
|-0-0-0-0-0-----0-|-------------------|-0-0-0-0-0-----0-0-|------------------|

  pm.............                       pm.......
|-----------------|-------------------|-------------------|------------------|
|-----------------|-------------------|-------------------|------------------|
|-----------------|-------------------|-------------------|------------------|
|-----------------|-------------------|-------------------|---------4--5--2--|
|-----------------|-------------------|-------------------|---------4--5--2--|
|-0-0-0-0-0-----0-|-------------------|-0-0-0-0-0---------|----x-x--2--3--0--|

                                                      vib.bar
                        pm.            hold-----------~~~~~~~pm.
|-----------------|-------------------|----------3--------|------------------|
|-----------------|-------------------|-------------3-----|------------------|
|-----------------|----------------5--|----------------5--|------------------|
|-----------------|----------4--5--5--|-------------------|---------4--5--2--|
|-----------------|----------4--5--3--|-------------------|---------4--5--2--|
|-----------------|-----0-0--2--3-----|-------------------|----0-0--2--3--0--|

           o     slack
|-----------------|-------------------|-----------|--------------------------|
|-----------------|-------------------|-----------|--------------------------|
|----------4------|-(0)-0----------5--|-----5/7/9/|11------------------------|
|-----------------|----------4--5--5--|-----x-----|---/============\-4--5--2-|
|-----------------|----------4--5--3--|-----3/5/7/|9--10-9-10-9-10-9-4--5--2-|
|-----------------|----------2--3-----|-----------|------------------2--3--0-|
 open G create from slack
 hitting the fretboard                                                 
                                                               \/   \/   \/
|------------------------|-------------------------|-------------------------|
|------------------------|-------------------------|-------------------------|
|------------------------|----------------------5--|-----------12-\-11-\-9-\-|
|------------------------|----------------4--5--5--|------------x------------|
|-----7------7-----7-----|-7-----7--------2--5--3--|-----------10-\--9-\-7-\-|
|-0-0---0-0----0-0---0-0-|---0-0-----0-0--2--3-----|-------------------------|

          
    \/  \/  \/
|------------------------|--0-----00-----00-----00-|-----00-------00---------|
|------------------------|--0-3/5----5/7----7/8----|8/10----10/12------------|
|-\-7-\-5-\-4------2-----|-------------------------|-----------------------5-|
|------------------2--2--|-------------------------|-----------------4--5--5-|
|-\-5-\-3-\-2------0--2--|-------------------------|-----------------4--5--3-|
|---------------------0--|-------------------------|-----------------2--3----|

                       ~~~vib.bar                o  o o o~~~~~~~~~~vib.bar
|-----------------|-------------------|-------------------|------------------|
|-----------------|-------------------|-------------------|------------------|
|--------5-/-7-/-9|/11/12-------------|-----------------5-|-(5)--------------|
|--------x--------|----------4--5--2--|---------------5---|------------------|
|--------3-/-5-/-7|/-9/10----4--5--2--|-------------5-----|------------------|
|-----------------|----------2--3--0--|----------4--------|-------------(17)\|

Rhythm Figure 1
  pm...............       pm.........   pm...         pm...............
|-----------------------|---------------------------|------------------------|
|-----------------------|---------------------------|------------------------|
|-------------------5---|---------------------7-x-7-|-------------------4----|
|-2-2-2-2-2---2-2-2-2---|---------------------7-x-5-|-2-2-2-2-2---2-2-2-2----|
|-----------------------|-7-7-7-7-7-7-0-5-5-5-5-----|------------------------|
|-----------------------|-----------\=/-------------|------------------------|

             end Rhy.Fig.1
  pm.......   pm...         pm..............     pm..................................
|-------------------------|--------------------|--------------------------------------|
|-------------------------|--------------------|--------------------------------------|
|-------------------7-x-7-|------------------5-|--------------5-4-2-------------------|
|-------------------7-x-5-|-2-2-2-2-2--2-2-2-2-|-2-2-2-2-2--2-------5-4-2-------------|
|-7-7-7-7-7-0-5-5-5-5-----|--------------------|--------------------------5-3-2-------|
|---------\=/-------------|--------------------|--------------------------------5-3-2-|

  pm..............     pm..................................
|--------------------|--------------------------------------|
|--------------------|--------------------------------------|
|------------------4-|--------------5-4-2-------------------|
|-2-2-2-2-2--2-2-2-2-|-2-2-2-2-2--2-------5-4-2-------------|
|--------------------|--------------------------5-3-2-------|
|--------------------|--------------------------------5-3-2-|

Rhythm Figure 2.
  pm...............................
|-----------------------------------|
|-----------------------------------|
|-----------------------------------|
|-----------------------------------|
|-----------------------------------|
|-0-0-0-0---0-0-0-0-0-0-0---0-0-0-0-|

Verse(w/Rhy.Fig.2. 12 times):
The smile of dawn arrived early May
She carried a gift from her home
The night shed a tear to tell her of fear
And of sorrow and pain,she'll never outgrow
Death is the first dance e-

    ter - nal.              There's   no    more     free  -  dom_________
 pm............
|------------------------|----2--------------------|--------------3----------|
|------------------------|------------2------------|--------------3-----3----|
|---------------------4--|---------------------4---|--------------0-----2----|
|---------------4--5--4--|-------------------------|---4----------0-----0----|
|---------------4--5--2--|-------------------------|----------2---x-----x----|
|-0-0-0-0---0-0-2--3-----|-------------------------|--------------3-----2----|

         The both of you_____   will be     con   -  fined
                           ~~~~~~~~
|------------------------|-------------------------|-------------------------|
|------------------------|-------------------------|---------------7---8-----|
|------4------4-/-6-/-7-/|11------------------2----|--5--------5---5---5-----|
|------4------x----------|------------2-------2----|--5--------5-------------|
|------2------2-/-4-/-5-/|-9----------2-------0----|--3--------3---------3-3-|
|------------------------|------------0------------|-------------------------|

          to   this__________________________ mind.
        pm.....................
|-------------------------------|-------------|--------------|---------------|
|-7-----------------------------|-------------|--------------|---------------|
|-5--5--------------------------|-------------|--------------|---------------|
|-5--5--------------------------|--2----------|--------------|---------------|
|-------3-3---------------------|--2----------|--------------|---------------|
|-----------3-3-3-3-3-3-2-2-2-2-|--0----------|--------------|---------------|

Bridge:
                     F#sus2                    Asus4
                        I was told there's a miracle for
each day that I tried.  I was told there's a new love that's born for
each one that has died. I was told there'd be no one to call on when
I feel alone and afraid.I was told if you dream of the next world

  You'll find yourself     swimming     in    a      lake    of    fire.
|------5-----------2-----|----------------3--------|-----------------0-------|
|---------8-----------5--|-------------3-----------|--------------0----------|
|--7---------4-----------|----------4--------4-----|-----------0--------(x)\-|
|--5------------4--------|-------7--------------7--|--------4-----------(x)\-|
|------------------------|-------------------------|-----2-------------------|
|------------------------|--3----------------------|--0----------------------|

      As a child      I thought I could live without pain,          without
                    pm..                    pm..
|----------2-------------|--3---x-x-3--------------|--2-------x-x-2----------|
|----------3-------------|--3---x-x-4--------------|--5-------x-x-5----------|
|--4---x-x-4-------------|--4---x-x-4--------------|--4-------x-x-4----------|
|--4---x-x-4-------------|--5---x-x-5--------------|--2-------x-x-2----------|
|--2---x-x-2--------2-2--|--5---x-x-5--------5--5--|--2-------x-x-2----------|
|------------------------|--3---x-x-3--------3--3--|--0-------x-x-0----------|

  sor    -    row.             As a man   I've  found it's all caught up with
|------------------------|-------------------------|--3-------x-x-3----------|
|------------------------|--3---x-x-3--------------|--3-------x-x-3----------|
|------------------------|--4---x-x-4--------------|--4-------x-x-4----------|
|--4-----------7---------|--4---x-x-4--------------|--5-------x-x-5----------|
|--4-----------7---------|--2---x-x-2--------------|--5-------x-x-5----------|
|--2-----------5---------|-------------------------|--3-------x-x-3----------|

  me.___         I'm    a-sleep  yet I'm  so a- fraid.__________________
                                                     pm...............
|------------------------|-------------------------|-------------------------|
|--5---x-x-5-------------|---3---------------------|-------------------------|
|--4---x-x-4-------------|---2------------2--------|-------------------5-----|
|--2---x-x-2-------------|---0------------2--------|-2-2-2-2-2---2-2-2-2-----|
|--2---x-x-2-------------|----------------0--------|-------------------------|
|--0---x-x-0-------------|-------------------------|-------------------------|

  pm.......   pm....        pm..............
|-------------------------|--------------------|-3-2-3-2---2-3-2-3-2---2-5-2-5-2---2-3-2---------|
|-------------------------|--------------------|---------5-----------5-----------5-------5-3-----|
|-------------------7-x-7-|------------------4-|---------------------------------------------4-2-|
|-------------------7-x-5-|-2-2-2-2-2--2-2-2-2-|-------------------------------------------------|
|-7-7-7-7-7-0-5-5-5-5-----|--------------------|-------------------------------------------------|
|---------\=/-------------|--------------------|-------------------------------------------------|

Verse 2(w/Rhy.Fig.1 2 times):
Somewhere like a scene from a memory
There's a picture worth a thousand words
Eluding stares from faces before me
It hides away,and will never be heard of a -

  gain.  Deceit is the second without end.___       The city's cold   blood    teaches
  pm..............      pm........    pm..
|---------------------|---------------------------|----------/===================================|
|---------------------|---------------------------|----------5-0-5-0-5-0-5-0-5-0-5-0-5-0-5-0-5-0-|
|-------------------5-|-------------------------4-|----------------------------------------------|
|-2-2-2-2-2---2-2-2-2-|-------------------4--5--4-|----------------------------------------------|
|---------------------|-7-7-7-7---7-0-5-5-4--5--2-|----------------------------------------------|
|---------------------|-----------\=/-----2--3----|----------------------------------------------|

     us to sur - vive.                   Just   keep my heart in       your
                                                                     A.H.
|-======================\-------------|--------------------------------------|
|-5-0-5-0-5-0-5-0-5-0-5-0---3----3----|--------------------------------------|
|---------------------------0----2----|----4---------------------------------|
|---------------------------0----0----|----4---------------------------------|
|---------------------------x----x----|----2--------------2-----4-----5------|
|---------------------------3----2----|----2----------2----------------------|

  eyes and we'll stay a  - live._____                         The third   ar-
                                     pm.   pm.   pm...   pm.
|------------------------|-------------------------|-------------------------------|
|------------------------|---------5-----7-----8---|---7---------------------------|
|-----------9-----7------|--5--------5-----5-----5-|-----5----5---0-2-0------------|
|-----------9-----7------|--5----------5-----5-----|-5-----5-x--------4-2-0--------|
|-----------7-----5------|-------------------------|--------x---------------3-2-0--|
|-----------0------------|-------------------------|-----------------------------3-|

                        rives.
|------------------------|-------------------------|-------------------------|
|------------------------|-------------------------|-------------------------|
|------------------------|-------------------------|---7---------------------|
|---2--------------------|-------------------------|---5----9-------7----7---|
|---2--------------------|-------------------------|--------7-------5----4---|
|---0--------------------|-------------------------|-------------------------|
                                                      1----------------------
 pm........................................................    pm........
|----------------|-------------------|----------------|----------------------|
|----------------|-------------------|----------------|----------------------|
|o---------------|-------------------|----------------|---------------------o|
|o----11---9-9---|-----9-----9-------|-----11---9-9---|-----7-----9---------o|
|---9----9-------|---7---7-7---7-----|---9----9-------|---5---5/7---7--------|
|-7------------7-|-5-------------5-5-|-7------------7-|-3-------------5-5----|

 2----------------
|-----------------|---------------------------------|---------12----12-------|
|-----------------|------------17-------15-15-------|------------------------|
|-----------------|o-----16----18-16----16-16-16----|------12-16-12-16-12----|
|-----7-----9-----|o--12-16-16----16-16-------16-16-|---11-14----14----14-11-|
|---5---5/7---7---|---14----------------------------|---12----------------12-|
|-3-------------5-|---------------------------------|------------------------|

                                                                         ~~~~
|----------------------|----------------19-------|----------------19---------|
|-------17----15-15----|----------17-------17----|----------17-------17------|
|----16-18-16-16-16-16-|-------18-------19------o|-------18-------19----14---|
|-12-16----16-------16-|----16-19-16-17----17-11o|----16-19-16-17----17------|
|-14-------------------|-14-17-----\=/--------12-|-14-17-----\=/--------16-14|
|----------------------|-15----------------------|-15--------------------\=/-|

 unison with keyboard
|-----------------------------------------------|--------------------------------------------------------------|
|-----------------------------------------------|--------------------------------------------12-14-15-12-14-15-|
|-----------------------------------------------|---------9-11-12----------11-12-14-11-12-14-------------------|
|---------------------------------------9-11-12-|-9-11-12---------11-12-14-------------------------------------|
|--------7-9-10---------9-10-12-9-10-12---------|--------------------------------------------------------------|
|-7-9-10--------9-10-12-------------------------|--------------------------------------------------------------|

|-12-14-15----------14-15-17-17-15-14-------------------|----------------------------------------------------------------|
|----------14-15-17-------------------17-15-14----------|----------------------------------------------------------------|
|----------------------------------------------16-14-12-|----------------------------------------------------------------|
|-------------------------------------------------------|-16-14-12-------------------------------------------------------|
|-------------------------------------------------------|----------16-14-12-------------------14-16-17----------16-17-19-|
|-------------------------------------------------------|-------------------15-14-12-14-15-17----------15-17-19----------|

|-------------------------------------------------------|----------------------------------------------------------------|
|-------------------------------------------------------|----------------------------14-15-17----------------------------|
|----------------------------------------------14-16-18-|----------16-18-19-12-14-16-------------------------------------|
|----------14-16-17----------16-17-19-14-16-17----------|-16-17-19-------------------------------------17-19-21----------|
|-14-16-17----------16-17-19----------------------------|-------------------------------------------------------17-19-21-|
|-------------------------------------------------------|-------------------------------------17-19-21-------------------|
                                                             /   /       /
                                                            /   /       / ~~~
|----------------------------------------------19-22-21-|-21--21------22-----|
|-------------------------------------19-20-22----------|---------19---------|
|-18-19-21----------18-19-21-18-19-21-------------------|--------------------|
|----------17-19-21-------------------------------------|--------------------|
|-------------------------------------------------------|--------------------|
|-------------------------------------------------------|--------------------|
|                                                       |                    |
|                                                       |                    |
|-------------------------------------------------------|--------------------|
|-------------------------------------------------------|--------------------|
|-------------------------------------------------------|--------------------|
|-------------------------------------------------------|--------------------|
|-------------------------------------------------------|-----------------0--|
|-------------------------------------------------------|--------------------|

|----------------|----------2-------|------------------|---------------------|
|----------------|-------------2----|------------------|---------------------|
|------6---4-4---|-------4--------4-|-------2--------2-|-----------0---------|
|----4---4-----2-|----2-------------|----0--------0----|--------4-----4------|
|--2-------------|-0----------------|-2----------------|-----2-----------2---|
|----------------|------------------|----------3-------|--0------------------|

|------------------|--0----0----------|-------------------|------------------|
|------------------|--0----0----------|-------------------|------------------|
|----------2-------|--5----5----------|-------------------|--4-/-9-----------|
|-------6----------|--3----3----------|-------------------|--2-/-7-----------|
|----4--------4--0-|--0----0----------|-------------------|--0---------------|
|-2----------------|------------------|-------------------|------------------|

                                                            hold------------
|-----------------|-------------------|-------------------|------------------|
|-----------------|-------------------|-------------------|------------------|
|-----------------|--9-\-7------------|-------------------|--------------4---|
|-----------------|--9-\-5------------|-------------------|------------------|
|-----------------|--7-\-5------------|-------------------|----3-------------|
|-----------------|-------------------|-------------------|-0--1-------------|

  ----------------
|-----1-----------|-------------------|-------------------|---------12-------|
|-1-------1-------|-----0-------------|-------------------|------------12----|
|-------------4---|-----x-------------|-------------------|-3--3----------15-|
|-----------------|-----4-------------|-------------------|-4--4-------------|
|-----------------|-----4-------------|-------------------|-4--4-------------|
|-----------------|--0--2-------------|-----------------0-|-2--2-------------|

|-----------------|--0-0-0-0-0--------|-------------------|------------------|
|-----------------|--0-0-0-0-0--------|-------------------|----0-------------|
|-----------------|--3-3-3-3-3--------|-------------------|----3-------------|
|-----------------|--4-4-4-4-4--------|--------------x-\--|----4-------------|
|-----------------|--4-4-4-4-4--------|--------------x-\--|----4-------------|
|-----------------|--2-2-2-2-2--------|-------------------|-0--2-------------|

|------------------------|---9---------------------|--9--9--x--9--9-x-x--9--9-7-|
|------------------------|---9---------------------|--9--9--x--9--9-x-x--9--9-7-|
|------------------------|--11---------------------|-11-11--x-11-11-x-x-11-11-9-|
|------------------------|--11---------------------|-11-11--x-11-11-x-x-11-11-9-|
|------------------------|---9---------------------|--9--9--x--9--9-x-x--9--9-7-|
|----------------------0-|-------------------------|----------------------------|

|--9--------------|-------------------|-------------------|------------------|
|--9--------------|-------------------|-------------------|------------------|
|-11--------------|-------------------|-------------------|------------------|
|-11----------4---|---4--4--4-------4-|-5--------5--5--5--|-------------5----|
|--9----------4---|---4--4--4-------4-|-5--------5--5--5--|-------------5----|
|-------------2---|---2--2--2-------2-|-3--------3--3--3--|-------------3----|

                                         hold-------------~~~~~~~~~~~vib.bar
|-----------------|-------------------|-----------0-------|------------------|
|-----------------|-------------------|--------------0----|------------------|
|-----------------|-------------------|-----------------3-|------------------|
|---7----7--------|--9----------------|--4----------------|------------------|
|---7----7--------|--9------------2---|--4----------------|------------------|
|---5----5--------|--7------------0---|--2----------------|------------------|

|-12----------14-13-12-11|-10----------------------|-----------------------------------|----------------------|
|----12-11---------------|----14-13-12-11----------|-----------------------------------|----------------------|
|----------11------------|----------------14-13-12-|-11--9--8----9-11-9-8--------------|----------------------|
|------------------------|-------------------------|----------11----------11-10-9-8----|--------/13-11-9-11-9-|
|------------------------|-------------------------|--------------------------------11-|-9--7--6-------\====/-|
|------------------------|-------------------------|-----------------------------------|----------------------|

        ~~~~~~~
|-----------------|----21----------14-|-------------------|-------------9-14------9-12-------|
|-----------------|-19------19--17----|-16----------------|-------------------------------10-|
|----/-11------21-|-------------------|------16-\-8-------|----11--9-11------9-11------------|
|--8--------------|-------------------|----------------9--|-8--------------------------------|
|-----------------|-------------------|-------------------|----------------------------------|
|-----------------|-------------------|-------------------|----------------------------------|

                       ~~~
|----------9--------------|-----------------------------------------|-------------------------------------|
|-11-12-13---10-11--------|-12-9-10-11-10-9-------------------------|-------------------------------------|
|------------------11-----|-----------------11-10-9-8----8-9-10-9-8-|-----------------6-------------------|
|---------------------11--|---------------------------11------------|-11-10-9-8-6-8-9---9-8-6-5-4---6-7-8-|
|-------------------------|-----------------------------------------|-----------------------------6-------|
|-------------------------|-----------------------------------------|-------------------------------------|
                                                                           /
                                                 ~~~~~~~~~~~~fdbk.vib.bar./
|-----------------------------------------|----------------------------------|
|-7---------5-----------------------------|------------------------------9---|
|---------------------6---------4---------|--3-------------------------------|
|---6-4-5-6-------------------------------|----------------------------------|
|-------------8-6-7-8---6-4-5-6---4-2-3-4-|-----4----------------------------|
|-----------------------------------------|----------------------------------|
          /                                                                                 /\
         /            /===\        /=\                                                     /  \
|-7-8-9-9----9-8-7----7-8-7------|-8\7-5-----5-6-----------------------|------------------------|
|------------------10-------10-7-|-------7-5-----7---/=\---------------|------------------------|
|--------------------------------|-----------------6-5\4-2-----2-3-----|------------------------|
|--------------------------------|-------------------------4-2-----4-2-|-4-2--------------------|
|--------------------------------|-------------------------------------|-----4-3-2-0------4-(4)-|
|--------------------------------|-------------------------------------|-------------2-0--------|

                   keyboard superimposes a
                   6/8 line starting on 3rd
        tr.~~~~    beat of this 8/8 measure
|-----------------|----(0)------------|-------------------|-0----------------|
|-----------------|-----0-------------|-------------------|(0)---------------|
|-----------------|-----3-------------|-------------------|-3----------------|
|-(4)-4-2---------|--2--4-------------|-----------------2-|-4----------------|
|-----\=/---------|--2--4-------------|-----------------2-|-4----------------|
|-----------------|--0--2-------------|-----------------0-|-2----------------|

                    RIFF A
                    pm...  pm.
|-----------------|-----------------|------------|-------------|-------------|
|-----------------|-----------------|------------|-------------|-------------|
|-----------------|-----------------|-----|------|------|
|-----------------|-------9---------|------------|-------------|-------------|
|-----------------|-----7------8-10-|------------|-------------|-------------|
|-----------------|-0-0-----0-8-----|------------|-------------|-------------|

 Riff A on keyboards
 only                  ~~~~~~  ~~~~~~~~   ~~~~~~~  ~~~~~~~~   ~~~~~~~  ~~~~~~
|-----------------|----------12-------|----------10-------|------------------|
|-----------------|-------------------|-10----------------|-12---------------|
|-----------------|---9---------------|-------------------|-----------12-----|
|-----------------|-------------------|-------------------|------------------|
|-----------------|-------------------|-------------------|------------------|
|-----------------|-------------------|-------------------|------------------|

     ~~~~~~~ ~~~~~~      ~~~~~~ ~~~~~~      ~~~~~~~  ~~~~~~~   ~~~~~~~  ~~~~~
|-----------------|-------------------|---18--------------|------------------|
|--10-------------|------------15-----|--x----------------|------------------|
|-----------------|-------------------|-x----------16-----|--13--------9-----|
|----------12-----|-12/14-------------|-------------------|------------------|
|-----------------|--\=/--------------|-------------------|------------------|
|-----------------|-------------------|-------------------|------------------|

    ~~~~~~~ ~~~~~~
|-----------------|-----------------17-15/|16-------------------------|-17-19-16----17-16-|
|-----------------|---17-----17-----------|--17------17------17-------|----------17-------|
|--11-------------|------------16-14------|---------------------16-14-|-------------------|
|----------8------|-14--14-14-------------|----14-14-------14---------|-------------------|
|-----------------|-----------------------|---------------------------|-------------------|
|-----------------|-----------------------|---------------------------|-------------------|

                                                        ~~~~~~~~~~~~~~~~~~~~~
|(16)/22----------------|-----------9-|-10/16-------------|------------------|
|--------------17/22----|-------------|----------------17-|------------------|
|-----------------------|-----2-------|-------------16----|------------------|
|--------13-14------7-8-|-9--2---6----|-------14-18-------|------------------|
|-----------------------|-------------|-------------------|------------------|
|-----------------------|-------------|-------------------|------------------|

  pm...  pm.                            pm...   pm...  pm.
|------------------|------------------|-------------------------|------|-----|
|------------------|------------------|-------------------------|------|-----|
|------------------|---------|-------------------------|--|--|
|-------9----------|------------------|-------------------------|------|-----|
|-----7-------8-10-|------------------|-------7-------7-----7-8-|------|-----|
|-0-0-----0-8------|------------------|-0-0-0---0-0-0---0-7-----|------|-----|

  pm...   pm...  pm.
|-------------------------|-------------------------|-----------------------------|
|-------------------------|-------------------------|-----------------------------|
|-------------------------|-------6-3-------------7-|-------10-7------------11-13-|
|-------------------------|-----5-----4---------6---|-----9------8--------10---12-|
|-------7-------7-----7-8-|---4---------5-----5-----|---8----------9-----9-----11-|
|-0-0-0---0-0-0---0-7-----|-3-------------6-4-------|-7--------------10-8------10-|

|----------------------------|---------------------------11------------------|
|----------------------------|--11--10---------------------------------------|
|-------14-11-------------15-|----------13--12--11--10----------------13--12-|
|-----13-----12---------14---|--------------------------------12-12----------|
|---12---------13-----13-----|-----------------------------------------------|
|-11-------------14-12-------|-----------------------------------------------|

 pm..........................................................................
|-------------------------------------|--------------------------------------|
|-------------------------------------|--------------------------------------|
|o------------------------------------|-------------------------------------o|
|o------------------------------------|-------------------------------------o|
|-------------------5--4--3--2--1--0--|-------------------5--4--3--2--1--0---|
|-5--4--3--2--1--0--------------------|-5--4--3--2--1--0---------------------|

|-------------------------|-------------------------|-------------------------|-------------------|
|-------------------------|-------------------------|-------------------------|-------------------|
|-------------------------|-------------------------|-------------------------|-------------------|
|-------4-----5---4---4---|-------4-----5---4---4---|-------4-----5---4---4---|-------4-----5-----|
|---------2-3---3---2---2-|---------2-3---3---2---2-|---------2-3---3---2---2-|---------2-3---3-2-|
|-3-2-3-------------------|-3-2-3-------------------|-3-2-3-------------------|-3-2-3-------------|

|-------------------------|--------------------------|-------------------------|
|-------------------------|--------------------------|-------------------------|
|-------------------------|--------------------------|-2-----------------------|
|-5---4-----4---2---------|-5---4-----4----2---------|-----5-2---4-------2-----|
|---3---2---------3-5-2-2-|---3---2----------3-5-2-3-|---3-----5---5-2-3---5-3-|
|---------5---5-----------|---------5----5-----------|-------------------------|

|-------------------------|------------------------|-------------------------|
|-------------------------|------------------------|-------------------------|
|-2-----------------------|------------------------|-------------------------|
|-----5-2---4-------2-----|-4---5-----5---7----4---|-5---7-----4---5-----4---|
|---3-----5---5-2-3---5---|------------------------|---------2---2---2-3---3-|
|-----------------------2-|---2---2-3---3---3-5--5-|---5---5-----------------|

|-------------------------|---------------------------|---------------------------|
|-------------------------|---------------------------|---------------------------|
|-------------------------|-----------------------9---|---12---11----11--9--------|
|-5---7-----5---7-----7---|-9-----9---10---12---------|-9----9---10-------10-12-9-|
|---3---3-5---5---5-7---7-|---7-8---8----8----8-9---9-|------------12--12---------|
|-------------------------|---------------------------|---------------------------|

|--------------------------|---------------------------|---------------------------|
|--------------------------|---10----------------------|---10----------------------|
|--12---11----11--9--------|-------12-9--11--------9---|-------12-9--11--------9---|
|-9---9---10-------10-12-9-|-10--10----12--12-9-10--12-|-10--10----12--12-9-10--12-|
|-----------12--12---------|---------------------------|---------------------------|
|--------------------------|---------------------------|---------------------------|

  divisi
|----15----14-------|-14----12-------|-14----12-------------|-15----14-------|-17-------15----14-------|
|----17----15-15----|-15----13-13----|-15----13-13-15-12-12-|-17----15-15-13-|-15-------17-17-15-15-15-|
|-16----16----16-14-|----14----14-14-|----14----14-16-12-12-|----16----16-14-|----14/17----17-------16-|
|-17----17-------16-|----17-------16-|----17----------------|----17----------|-------------------17----|
|-------------------|----------------|----------------------|----------------|-------------------------|
|-------------------|----------------|----------------------|----------------|-------------------------|

                                                                     ~~~~~~~~~~~~~
|-19----17-14----|-17-------15-------|-17----19-15-17-------22----|-22------------|
|-20-15-19-15-17-|-19-------17-17-17-|----17-20-17-19-19-19-19----|---------------|
|----16-------17-|----14/17----17-17-|-17-16----------19-19----19-|--0--2-0-------|
|----------------|-------------------|----------------------------|---------4-4-2-|
|----------------|-------------------|----------------------------|---------------|
|----------------|-------------------|----------------------------|---------------|
                                                                vib. for gtr.1
                                                                      only
 ~~~~~~~~~~~~~~~~~~~~~~~~~~~~~~~~~~~~~~~~~~~~~~~~~~~~~~~
|-----------------|-------------------|-----------------|-----------|--------|
|-----------------|-------------------|-----------------|-----------|--------|
|-----------0--2--|--0----------------|-----------------|--7--------|--------|
|--0--------------|-----4-4-2---0-----|-----------------|--5---9----|--7--7--|
|-----3--2--------|----------------3--|--2--0-----------|------7----|--5--4--|
|-----------------|-------------------|--------3--2--0--|-----------|--------|

                                           1----------------- 2--------------
 hold--------- hold--------- hold--------- hold-------------- hold-----------
|-------0-----|-------------|-------------|-------0----------|---------------|
|---------3---|-------3-----|---------3---|-----3------------|---------------|
|o----4-----4-|-----4---4---|-------0---0-|---2----------4--o|-------0-------|
|o--4---------|---4-------4-|-----4-------|-0---------------o|----4----------|
|-2-----------|-------------|-------------|-----------0------|-5--------4--0-|
|-------------|-3-----------|-0-----------|------------------|---------------|

Verse 3:

  Before   the    leaves       have     fal - len
 hold------------  hold--------------- hold--------------- hold--------------
|----------0------|-------------------|-------------------|------------------|
|-------------3---|----------3--------|-------------3-----|------------------|
|-------4--------4|-------4-----4-----|----------0-----0--|-------0----------|
|----4------------|----4-----------4--|-------4-----------|----4-----4-------|
|-2---------------|-------------------|-------------------|-5-----------0----|
|-----------------|-3-----------------|-0-----------------|------------------|

  Before   we     lock          the     door._____________________
 hold------------- hold--------------- hold--------------- hold--------------
|-----------------|-------------------|-------------------|------------------|
|---------3-------|----------3--------|----------3--------|----------3-------|
|------0-----0----|-------0-----0-----|-------0-----0-----|-------0--------0-|
|---------------4-|----4-----------4--|----4-----------4--|----4--------4----|
|-2---------------|-------------------|-------------------|-5----------------|
|-----------------|-3-----------------|-0-----------------|------------------|

Rhythm Figure 2.                                                end Rhy.Fig.2.
  Bm                G5                  E5                  D5         A5
|       |         |         |                |
| /  x x /  / x x |                   |                   |  /          /    |

w/Rhy.Fig.2:
There must be the third and last dance.This one will last forever
Metropolis watches and thoughtfully smiles,she's taken you to your home

      It can only take place when the struggle between our children has ended
                                        hold-------------- hold--------------
|-----------------|-------------------|-3---6----5----3---|-5---5------------|
|-3---------------|-5-----------------|-3-----------------|-8--------6-------|
|-3---------------|-5-----------------|-3-----------------|-7-------------7--|
|-3---------------|-5-----------------|-5-----------------|-7----------------|
|-1---------------|-3-----------------|-------------------|-5----------------|
|-----------------|-------------------|-3-----------------|------------------|

          Now the   Miracle and the Sleeper                know    that the
 hold------------- hold--------------- hold---------------
|-----------------|-------------------|----------6--------|-6----------------|
|-6---6-----------|-5---5-------------|-------6------6----|-6----------------|
|-5--------5----5-|-5--------5----5---|-------------------|-7----------------|
|-5---------------|-5-----------------|----8--------------|-8----------------|
|-3---------------|-3-----------------|-6-----------------|------------------|
|-----------------|-------------------|-------------------|-6----------------|

 third  is         love.______________ Love     is   the   dance     of    E-
 hold-------------                     hold---------------
|------------8----|--8----------------|--------------3----|-3----------------|
|---------8-------|--8----------------|-----------3-----3-|-3----------------|
|-----------------|-10-----10---9---7-|-5------5----------|-5----------------|
|-----10----------|-10------x---x---x-|-5-----------------|-5----------------|
|--8--------------|---------8---7---5-|-3-----------------|-3----------------|
|-----------------|-------------------|-------------------|------------------|

 ternity.________
                                       fdbk. pitch:A
|-----------------|-------------------|-------------------|------------------|
|-3---------------|-------------------|-------------------|------------------|
|-2---------------|-------------------|-------------------|------------------|
|-4---------------|-------------------|-------------------|------------------|
|-5---------------|-------------------|-------------------|------------------|
|-----------------|-------------------|-------------------|------------------|

CHORDS USED:
                                                        
  E5   G5  Bm  F#sus2  Asus4   D5                       \/
|----------(2)---2-------5-------------------------|-------------------------|
|-----------3----2-------3-------------------------|-------------------------|
|-----------4----4-------2-----7-------------------|----5--------------------|
|-2----5----4----4-------0-----7-------------------|-------------------------|
|-2----5----2------------0-----5-------------------|-------------------------|
|-0----3---------2---------------------------------|-------------------------|
                                                      depress & release bar
TABLATURE EXPLANATION:
                                                /
  pm.             ~~~~      ~~~~vib.bar        /    tr.~~~        o     A.H.
|------------------------|-------------------------|-------------------------|
|------------------------|-------------------------|-------------------------|
|------------------8-----|--8----------------12----|-4-------------------8---|
|------------------------|-------------------------|--------------3----------|
|---------x--x-----------|--------------(3)--------|------2-0----------------|
|-0-0-----x--x-----------|-------------------------|------\=/----------------|
  palm  muffled vibrato vibrato w/bar  ghost bend  trill legato natural artificial
 muting strings                         note w/bar              harmonic harmonic
[ Tab from: http://www.guitaretab.com/d/dream-theater/5636.html ]
Related for Metropolis Part1 tab