Song name
# A B C D E F G H I J K L M N O P Q R S T U V W X Y Z

Dream Theater - Rock Discipline tab

Band- Dream Theater
Song- Rock Discipline

vvv = vibrato
~~= let ring

Fig 1.   x2

E-----------------------------------------|
B-----------------------------------------|
G---2~~-------------5---------------------|
D---2~~-------------5----------5----------|
A---0~~------2vvv---3----------5--3-3--3--|
E-----------------------2vvv---3--1-1--1--|
                                       PM

E---------------------------------------|
B------------------------3~-------------|
G---2~~------------------2~-------------|
D---2~~--------5-----2---0~--------2--5-|
A---0~~-----2----2-3-----0~---3--5------|
E---------------------------------------|
           PM.........       ..........

Fig 2.  x2

let all ring

E-----------------------------------------------------------------|
B-----------------------------------------------------------------|
G--6~----------6~--------4------6~-----------6~---9---------------|
D--6~----7~----6~----4---4------6~----7~-----6~---9---------------|
A--4~----7~----4~----4---2------4~----7~----*4~---7---6-7-6-4-----|
E--------5~----------2h4--------------5~----------------------7-4-|
                                                     PM..........

* on second time play
E------|
B------|
G---8--|
D---6--|
A--*4--
E------
Tap to rate this tab
# A B C D E F G H I J K L M N O P Q R S T U V W X Y Z