Song name
# A B C D E F G H I J K L M N O P Q R S T U V W X Y Z

Dream Theater - Space Dye-vest tab

----------------------------------------------------------------------------
			     Space Dye-Vest - Dream Theater
----------------------------------------------------------------------------
Tabbed by: June Bug
Email: Little_piggy_8@hotmail.com

Tuning: Standard

Only Done The Intro So Far, Will Try And Do More At Some Point

e| ---0-----1-0-0--0-1-0---3-1-1--1-3-1---5-3-3--3-5-3-0-6-5-5--5-6-5---8-6|
B| -3---3----------------2--------------3-----------------------------6----|
G|.-------3----------------------------------------------------------------|
D|.------------------------------------------------------------------------|
A| ------------------------------------------------------------------------|
E| ------------------------------------------------------------------------|

e|-6--6-5-3-5-6-5-5--5-3-1-3-5-3-3--1-0---0-1-0-------|
B|--------------------------------------3-------3-----|
G|------------------------------------------------(2)-|. Play This Twice,
D|----------------------------------------------------|. Ignoring the (2) 
A|----------------------------------------------------|  Second Time Around
E|----------------------------------------------------|

Figured I'd Do This Because It's The Way I Taught Myself and Is Less Complicated
That Playing On D and G Higher Up The Neck
Tap to rate this tab
# A B C D E F G H I J K L M N O P Q R S T U V W X Y Z