Guitaretab - guitar tabs
Song name
# A B C D E F G H I J K L M N O P Q R S T U V W X Y Z

Dream Theater - Change Of Seasons Acoustic tab

Dream Theater - A Change of Seasons (Intro 6 String ) - Tabbed by Eliort88

E|--------------------------------------------------------------------|
B|--------------------------------------------------------------------|
G|----2-5-----2-4----0-2---2/5-5-7-------0------0------2-0------------|
D|---2------2-------2-----------------7-------5------2---------0------|
A|----------------------------------5------3-------0---------2--------|
E|-0------0-------0-----0----------------------------------3------3-0-|


E|-------------------------------------------------------------------|
B|-------------------------------------------------------------------|
G|----2-5-----2-4----0-2---2/5-5-7-------0------0------2-------------|
D|---2------2-------2-----------------7-------5------2---2------3----|
A|----------------------------------5------3-------0----------3---3--|
E|-0------0-------0-----0-----------------------------------1--------|

E|--------------------------------------------------------------------|
B|--------------------------------------------------------------------|
G|----2-5-----2-4----0-2---2/5-5-7-------0------0------2-0------------|
D|---2------2-------2-----------------7-------5------2---------0------|
A|----------------------------------5------3-------0---------2--------|
E|-0------0-------0-----0----------------------------------3------3-0-|

[ Tab from: http://www.guitaretab.com/d/dream-theater/65104.html ]
E|-------------------------------------------------------------------|
B|-------------------------------------------------------------------|
G|----2-5-----2-4----0-2---2/5-5-7-------0------0------2-------------|
D|---2------2-------2-----------------7-------5------2---2------3----|
A|----------------------------------5------3-------0----------3---3--|
E|-0------0-------0-----0-----------------------------------1--------|

E|----------0-----------------0------------------------------------------------|
B|--------0---0-------------3-----3-------------------2------------------------|
G|------2-----------------0-----------------4---------------------------0------|
D|----4-----------------5-----------------2---2----4----4------4------2---2----|
A|--------------------------------------0--------2-----------2---2-------------|
E|--2---------2-0---3-----------3---3----------------------0--------3----------|


E|---------------------------------|
B|---------------------------------|
G|----------------0----------------|
D|------------4------------7---5-4-|
A|------2h5---------5h7------------|
E|----------0---0------------0-----|

E|--------------------------------|
B|--------------------------------|
G|----------------0---------------|
D|------------4----------0--------|
A|------2h5---------5h7-----7-----|
E|----------0---0-----------------|

E|---------------------------------|
B|---------------------------------|
G|----------------0----------------|
D|------------4------------7---5-4-|
A|------2h5---------5h7------------|
E|----------0---0------------0-----|

E|--------------------------------|
B|--------------------------------|
G|----------------0---------------|
D|------------4----------0--------|
A|------2h5---------5h7-----7-----|
E|----------0---0-----------------|

Complete version of Crimson sunrise will be tabbed by requests
Related for Change Of Seasons Acoustic tab
×
Best way to learn
"Change Of Seasons Acoustic"