Song name
# A B C D E F G H I J K L M N O P Q R S T U V W X Y Z

Dream Theater - A Crack In The Mirror tab

This is an un-released prelude to 'The Mirror'. I think it was played during parts of
the Awake/FII tours with Derek on keyboards.. if you need the song, I've got it, it's
pretty cool...


--A Crack in The Mirror--

(7 String Guitar)
Intro Lead (Repeat X2)
e|---------------------------------------------------------------------------|
B|---------------------------------------------------------------------------|
G|-----16-----18-----19-----18---16~~----------------------------------------|
D|---------------------------------------------------------------------------|
A|-----14-----16-----17-----16---14~~----------------------------------------|
E|---------------------------------------------------------------------------|
B|-0-0----0-0----0-0----0-0----0---------------------------------------------|

Drums Enter
e|---------------------------------------------------------------------------|
B|---------------------------------------------------------------------------|
G|---------------------------------------------------------------------------|
D|---------------------------------------------------------------------------|
A|---------------------------------------------------------------------------|
E|---ph----------------------------------------------------------------------|
B|--3*///////12~~~~~~~~\\\\\\\\0---------------------------------------------|

Main Riff
e|---------------------------------------------------------------------------|
B|---------------------------------------------------------------------------|
G|---------------------------------------------------------------------------|
D|----------------------------------------------7----------------------------|
A|---4--4-5----4----------5---------------------5----------------------------|
E|-0-2--2-3--0-2--0-2---2-3---0-2--0-3--0-2---2-5----------------------------|
B|-0-2--0-3--0-2--0-2-0-2-3---0-2--0-3--0-2-0-2-3----------------------------|

e|---------------------------------------------------------------------------|
B|---------------------------------------------------------------------------|
G|---------------------------------------------------------------------------|
D|----------------------------------------------7----------------------------|
A|---4--4-5----4----------5---------------------5----------------------------|
E|-0-2--2-3--0-2--0-2---2-3---0-2--0-3--0-2---2-5----------------------------|
B|-0-2--0-3--0-2--0-2-0-2-3---0-2--0-3--0-2-0-2-3----------------------------|


Bridge Riff
e|---------------------------------------------------------------------------|
B|---------------------------------------------------------------------------|
G|---------------------------------------------------------------------------|
D|----------------------------------------------------3----------------------|
A|----------------------------------5---5-4---5---5-4-1----------------------|
E|-0--3-0-3-2-0-2----2-0--2-0-3--2--3---3-2---3---3-2-1----------------------|
B|-0--3-0-3-2-0-2--0-2-0--2-0-3--0----0-----0---0----------------------------|

e|---------------------------------------------------------------------------|
B|---------------------------------------------------------------------------|
G|---------------------------------------------------------------------------|
D|----------------------------------------------7----------------------------|
A|---4--4-5----4--------------------------------5----------------------------|
E|-0-2--2-3--0-2--0-2---2-----0-2--0-3—-0-2---2-5----------------------------|
B|-0-2--0-3--0-2--0-2-0-2-3*~~0-2--0-3--0-2-0-2-3----------------------------|

e|---------------------------------------------------------------------------|
B|---------------------------------------------------------------------------|
G|-------------------------------------------------------(start ‘the mirror’)|
D|----------------------------------------------7----------4-----------------|
A|---4--4-5----4--------------------------------5----------2-----------------|
E|-0-2--2-3--0-2--0-2---2-3---0-2--0-3--0-2---2-5----------2-----------------|
B|-0-2--0-3--0-2--0-2-0-2-3---0-2--0-3--0-2-0-2-3----------0-----------------|
Tap to rate this tab
# A B C D E F G H I J K L M N O P Q R S T U V W X Y Z