Guitaretab - guitar tabs
Song name
# A B C D E F G H I J K L M N O P Q R S T U V W X Y Z

Dream Theater - Stream Of Conscienceness tab

Im figuring a lot out of this song right now, Ill make ALOT of updates on
it soon!!! If I messed up ill fix it up next time when Ive got more time..

Intro: 0:00-0:20
E|-----------------------------------------------------------|
A|-4----------4---4------0---------0---0---------------------|   
D|----7-6-7-6---7---6-7----7-6-7-6---7---6-7-----------------| repeat 4x
g|-----------------------------------------------------------|
b|-----------------------------------------------------------|
e|-----------------------------------------------------------|    

Not sure on the next part yet.Ill figure it out soon 

0:20-0:39...?

0:39-1:17...not sure but what ive found out so far
[ Tab from: http://www.guitaretab.com/d/dream-theater/70737.html ]
E|-0-0-0-0-0--0-0-0-0-0-0-|
A|--4-4---4-4--4-4---4-4--|
D|--6-7---6-7--7-6---7-6--| 2x
g|------------------------|    
b|------------------------|    
e|------------------------|
   . . . . . . . . . . . . . . . . . . . .
E|-0-0-0-0-0-0-0-0-0-0-0-0-0-0-0-0-0-0-0-0-----|
A|--6-4---6-4-6-4---6-4-4-3---4-3-3-1---0-0----|
D|--6-4---6-4-4-2---4-2-2-2---3-2-2-1---2-2----| 
g|---------------------------------------------|    
b|---------------------------------------------|    
e|---------------------------------------------|
          Repeat whole thing twice 
1:17-1:44
   .         .    .       .  .         .   .                    
E|-----------------------------------------------------------|
A|-4---------4----4-------4--0---------0---0-----------------|
D|---7-6-7-6---7----6-7-6------7-6-7-6---7---6-7-------------| repeat 2x
g|-----------------------------------------------------------|
b|-----------------------------------------------------------|
e|-----------------------------------------------------------|
    
E|--4---------0-5---------0-7----------2---2-----------------|
A|----7-6-7-6-----7-6-7-6-----7-6-7-6----7---6-7-------------|
D|-----------------------------------------------------------|    
g|-----------------------------------------------------------|
b|-----------------------------------------------------------|
e|-----------------------------------------------------------|
  
E|-4--------0-5-------0-2-------0---0------------------------|
A|---7-6-7-6---7-6-7-6---7-6-7-6--7---6-7--------------------|
D|-----------------------------------------------------------|    
g|-----------------------------------------------------------|
b|-----------------------------------------------------------|
e|-----------------------------------------------------------| 
  
E|-0-4-------0-4-------0-4--------0-4------------------------|    
A|----7-6-7-6---7-6-7-6--------------------------------------|
D|-------------------------7-6-7-6----7-6-7-6----------------|
g|-----------------------------------------------------------|    
b|-----------------------------------------------------------|    
e|-----------------------------------------------------------|
 
1:44-2:02
E|-0-0-0-0-0--0-0-0-0-0-0-|
A|--4-4---4-4--4-4---4-4--|
D|--6-7---6-7--7-6---7-6--| 2x
g|------------------------|    
b|------------------------|    
e|------------------------|
   . . . . . . . . . . . . . . . . . . . .
E|-0-0-0-0-0-0-0-0-0-0-0-0-0-0-0-0-0-0-0-0-----|
A|--6-4---6-4-6-4---6-4-4-3---4-3-3-1---0-0----|
D|--6-4---6-4-4-2---4-2-2-2---3-2-2-1---2-2----| 
g|---------------------------------------------|    
b|---------------------------------------------|    
e|---------------------------------------------|
Related for Stream Of Conscienceness tab