Song name
# A B C D E F G H I J K L M N O P Q R S T U V W X Y Z

Dream Theater - In The Presence Of Enemies Part 2 tab

Artist: Dream Theater
Guitar: Petrucci
Tuning: 6 String E

Tabbed By RidouxIBZ. Assisted by Audacity.

Ok... This solo is very very fast and has alot of pentatonic speed picking and sweep 
so it's quite difficult. Lots of practice for this one ;)
The excess of hammer and pull-offs is my way of playing this solo, so you can pick every 
but I find it sounds roughly the same to Petrucci's version.

PETRUCCI IS GOD!


|------------------------------------------------------------------|
|------------------------------------------------------------------|
|--------7-9p7----------------7-9h10p9p7---------------------------|
|-7h8h10-------10-8-7--7h8h10------------10p8p7--------------------|
|-----------------------------------------------10p8p7-7h8p7p5-----|
|--------------------------------------------------------------8p6-|

|-----------------------------------------------------------------------|
|-----------------------------------------------------------------------|
|-----------------------------------------------------------------------|
|-----------------------------------------------------------------------|
|-----------------------------------------------------------------------|
|-5--6p5s3~~-6-5-0--<3>^//////////-\\\\\\\\\~~~~~~~~--------------------|
                            ^         ^
           Trem bend       down       up

|-------------------------------------------------------------------|
|-------------------------------------------------------------------|
|-------------------------------------------9h10h12p10p9-9s10h12h14-|
|------------------------7h8h10h8p7s8h10h12-------------------------|
|-------5h7h8p7p6s7h8h10--------------------------------------------|
|-5h6h8-------------------------------------------------------------|

|-------------------------12h15h17p15p13----13h15h17-18p17p15-------|
|-11h13h15p13p11s13h15h17----------------17-------------------------|
|-------------------------------------------------------------------|
|-------------------------------------------------------------------|
|-------------------------------------------------------------------|
|-------------------------------------------------------------------|

|-13s12h13h15-17p15p13p12s10h12h13-15p13p12p10----------------------|
|----------------------------------------------11p10----------------|
|----------------------------------------------------12p10p9--------|
|------------------------------------------------------------10-----|
|---------------------------------------------------------------12~-|
|-------------------------------------------------------------------|

|-------------------------------------------------------------------|
|-------------------------------------------------------------------|
|-------------------------------------------------------------------|
|-------------------------------------------------------------------|
|-8s7-8p7h8p7h8p7h8p7~~~s0------------------------------------------|
|-------------------------------------------------------------------|

|-------------------------------------------------------------------|
|-------------------------------------------------------------------|
|----------10-12-13-12-10-------------------------------------------|
|-10-11-13----------------13-11-10-13-11-10-------------------------|
|-------------------------------------------13-11-10-11-13-10-11-10-|
|-------------------------------------------------------------------|

|--------------------------------------------------------------------|
|--------------------------------------------------------------------|
|--------------------------------------10-11-12-13s15-13-12-13-12-10-|
|--------------------------10-11-12s13-------------------------------|
|-8-------------8-10-11s13-------------------------------------------|
|---11-9-8-9-11------------------------------------------------------|

|-------------------------------------------------------------------|
|----------------------------------------16-14-13----------16-14-13-|
|----10-13-12-10-15-13-12----12-15-13-12----------15-13-12----------|
|-11----------------------13----------------------------------------|
|-------------------------------------------------------------------|
|-------------------------------------------------------------------|

|----------16-15-13----------------18-16-15----------20~~-----------|
|-16-14-13----------16-14-18-14-14----------18-16-14----------------|
|-------------------------------------------------------------------|
|-------------------------------------------------------------------|
|-------------------------------------------------------------------|
|-------------------------------------------------------------------|

|-20-------18-------20-------16-------18-------15-------16----------|
|-------------------------------------------------------------------|
|----17s15----15s17----17s13----13s15----15s12----12s13----13s10----|
|-------------------------------------------------------------------|
|-------------------------------------------------------------------|
|-------------------------------------------------------------------|


|-13------------------------------------------------------------------|
|-------------------------------15///~~~~~~~~~~~~~~~14p13-------------|
|----10s12-12p0\\\\\\\\-///////---------------------------15-13p12----|
|------------------------------------------------------------------13-|
|---------------------------------------------------------------------|
----------------------------------------------------------------------|

                 ^         ^       ^
  Trem bend     up        down     up


|-----------12-15---15-12-----------------------15-18------------|
|---------13-----14------14-----16~~----------16-----16~~-16^-14-|
|-------13-----------------15-12------------15-------------------|
|-----14----------------------------------17---------------------|
|-15---------------------------------15-18-----------------------|
|----------------------------------------------------------------|

|----------------------------------------------------------------|
|----14----------------------------------------------------------|
|-17----17-15-17p15h17p15-------15-------------------------15T---|
|-------------------------18-17----18-17-15-17~~-17~~-18T--------|
|----------------------------------------------------------------|
|----------------------------------------------------------------|

|-------------------------------------------------|
|-13h14h16h18p16p14p13s14h16h18h20p18p16p14h16h18-|
|-------------------------------------------------|
|-------------------------------------------------|
|-------------------------------------------------|
|-------------------------------------------------|

|-15h16h18h20p18p16p15h16h18h20-21p20p18p15s13h15h16h18p16p15p13-|
|----------------------------------------------------------------|
|----------------------------------------------------------------|
|----------------------------------------------------------------|
|----------------------------------------------------------------|
|----------------------------------------------------------------|

|-------------------------------------------------------------------|
|-16p14p13p11h13h14h16p13p11----------------------------------------|
|----------------------------10h12h13h15p13p12p10h12h13h15-17p15p13-|
|-------------------------------------------------------------------|
|-------------------------------------------------------------------|
|-------------------------------------------------------------------|

|--------------------------------------------------------------------|
|--------------------------------------------------------------------|
|--------------------------------------------------------------10-12-|
|-13p11p10p8h10h11p10p8-10~~-11~~------------10-11-13-10-11-13-------|
|--------------------------------11-10-11-13-------------------------|
|--------------------------------------------------------------------|

|-------------------------------------------------------|
|-------------11-13-14---------13-14-15--16~~~~~~~~~~s0-|
|-13-10-12-13----------11-13-15-------------------------|
|-------------------------------------------------------|
|-------------------------------------------------------|
|-------------------------------------------------------|

Now sit there and listen to Jordan Rudess' solo while you pick your fingers off the floor :)

h - hammer on
p - pull off
s - glissando or slide
T - tremolo picking
 - artificial harmonic
[x] - natural harmonic
~ - vibrato
^ - bend
/ \ - trem bend


Enjoy :)

T.C RidouxIBZ
Tap to rate this tab
# A B C D E F G H I J K L M N O P Q R S T U V W X Y Z